Oops, an error
Loading. Please wait.
We have an official Gay Bar tab made by UG professional guitarists. Check out the tab »
×
31,555 views 6 this week
1 commentread comment
1 2 3 4 5
x 6
add to favorites
×
Save as Personal and add changes to this tab that will be seen only by you. Learn more ›
×
You can save this tab as Personal to edit and correct it or add notes. All changes will be seen only by you. Learn more »
launch autoscroll
font size
0
reset
how to read this tab
guitar tuner
backing track
0:00
0:00
edit
Autoscroll
slow
fast
+/-
esc
set tempo
stop
Difficulty
intermediate
-------------------------------------------------------------------------------
                             GAY BAR - ELECTRIC SIX
-------------------------------------------------------------------------------
Tabbed by: J. Warner (with some help from A. Kirkby)
Email: jwarner24@hotmail.co.uk

Tuning: Standard

Intro & Verse 1 Guitar 1: There are tons of ways to play this (on different strings), 
                          this is the one that I found the easiest to play fast.
e|---------------------------------------------------------------------------|
B|---------------------------------------------------------------------------|
G|---------------------------------------------------------------------------|
D|----0----0-3-5-3-0-------------------------------(-X-7-)-------------------|
A|-------------------4-3----3-0-0-3-4-0------------(-X-7-)-------------------|
E|---------------------------------------------------------------------------|

Guitar 2 comes in playing the same thing but with more overdrive after guitar 1 plays the 
intro once. It plays the intro X6. Drums come in after guitar 1 plays intro X2 and
 vocals come in after guitar 1 plays intro X4.

Verse 2 Guitar 1 & 2: virtually the same as intro but with a power chord at the 
                      start once and the end once. Observe:

   bar                                     at the gay   bar
e|---------------------------------------------------------------------------|
B|---------------------------------------------------------------------------|
G|-(7)|------------------------------------------|-(7)-----------------------|
D|--7-|0---3-5-3-0-----------------------(-X-3-)-|--7------------------------|
A|--5-|------------4-3----3-0-0-3-4-0----(-X-3-)-|--5------------------------|
E|---------------------------------------------------------------------------|

Solo 1 Guitar 1: Pretty simple actually
e|---------------------------------------------------------------------------|
B|---------------------------------------------------------------------------|
G|---(7)--(7-7-7-7)--(5)--(5-5-5)--------------------------------------------|
D|----7----7-7-7-7----5----5-5-5---5-6----(-X-8-)----------------------------|
A|----5----5-5-5-5----3----3-3-3-0-3-4----(-X-8-)----------------------------|
E|---------------------------------------------------------------------------|

Solo 1 Guitar 2: More complicated. There are many ways to play this as well. 
                 This way was by far the easiest to play at speed and the 
                 easiest to add in any bends that you may want to play.
e|----8----8-8--8-----------8----8-8-8---8---8---8------(-X-3-)--------------|
B|----8----8-10-10b12b10----8----8-8-10b-10b-10b-10br---(-X-3-)--------------|
G|---------------------------------------------------------------------------|
D|---------------------------------------------------------------------------|
A|---------------------------------------------------------------------------|
E|---------------------------------------------------------------------------|

e|----10----10-10-10-10-10-10--------------(-X-1-)---------------------------|
B|----10----10-10-10-12-10-12b13b12--------(-X-1-)---------------------------|
G|---------------------------slow--------------------------------------------|
D|---------------------------------------------------------------------------|
A|---------------------------------------------------------------------------|
E|---------------------------------------------------------------------------|

e|----10----10-10-10-10bbr----8----8-8-8-8bbr-8-8-8---(-X-4-)----------------|
B|----10----10-10-10-10bbr----8----8-8-8-8bbr-8-8-8---(-X-4-)----------------|
G|---------------------------------------------------------------------------|
D|---------------------------------------------------------------------------|
A|---------------------------------------------------------------------------|
E|---------------------------------------------------------------------------|

Verse 3 Guitars 1 & 2: Same as verse 2 except when he sings 'gay bar gay bar 
                       gay bar' guitar 1 does this:

     gay  bar  gay  bar  gay bar 
e|---------------------------------------------------------------------------|
B|---------------------------------------------------------------------------|
G|---(7)--(7)--(7)--(7)--(7-7-5)--(5)--(5)--(5)--(5-5-7)---------------------|
D|----7----7----7----7----7-7-5----5----5----5----5-5-7--let ring------------|
A|----5----5----5----5----5-5-3----3----3----3----3-3-5----------------------|
E|---------------------------------------------------------------------------|

Break/Intro again: exactly the same as intro except guitar 2 comes in on the 
                   second time through with a COW BELL!! A third guitar also 
                   comes in after three times through with this:

G|----8b----8b-8b-8b-8b-8b-8bbr

Verse 4: same as verses 2 & 3

Solo 2 Guitar 1: same as solo 1 guitar 1

Solo 2 Guitar 2: As close as I can get it.
e|---------------------------------------------------------------------------|
B|----------------6-6--------6-----------------------------------------------|
G|-----5----5-5-7-----7--7-7---5---7-5---------------------------------------|
D|---------------------------------------------------------------------------|
A|---------------------------------------------------------------------------|
E|---------------------------------------------------------------------------|

e|---------------------------------------------------------------------------|
B|----------------6-6------6-----6--------(-X-2-)----------------------------|
G|-----5----5-5-7-----7------7-7---7-5----(-X-2-)----------------------------|
D|---------------------------------------------------------------------------|
A|---------------------------------------------------------------------------|
E|---------------------------------------------------------------------------|

e|---------------------------------------------------------------------------|
B|----------------------6-6-6-6-8-8-8-8--------------------------------------|
G|-----5----5-5-7-7-7-7------------------------------------------------------|
D|---------------------------------------------------------------------------|
A|---------------------------------------------------------------------------|
E|---------------------------------------------------------------------------|

e|---8/10-10-10-10\8-8-8-8-8-8-8-8---(-X-8-)---------------------------------|
B|---8/10-10-10-10\8-8-8-8-8-8-8-8---(-X-8-)---------------------------------|
G|---------------------------------------------------------------------------|
D|---------------------------------------------------------------------------|
A|---------------------------------------------------------------------------|
E|---------------------------------------------------------------------------|

Guitar 2 ends on this:
e|----10~~--------10\--------------------------------------------------------|
B|----10~~--------10\--------------------------------------------------------|
G|---------------------------------------------------------------------------|
D|---------------------------------------------------------------------------|
A|---------------------------------------------------------------------------|
E|---------------------------------------------------------------------------|

Guitar 1 ends on this:
e|---------------------------------------------------------------------------|
B|----------------7\---------------------------------------------------------|
G|----7~----------7\---------------------------------------------------------|
D|----7~----------7\---------------------------------------------------------|
A|----5~----------5\---------------------------------------------------------|
E|---------------------------------------------------------------------------|

LYRICS:

Girl!
I wanna take you to a gay bar,
I wanna take you to a gay bar,
I wanna take you to a gay bar, gay bar, gay bar

Let's start a war, start a nuclear war
At the gay bar, gay bar, gay bar
Wow!
At the gay bar

Solo 1

Now tell me do ya?, but do ya have any money?
I wanna spend all your money,
at the gay bar, gay bar, gay bar

Break

I've got something to put in you,
I've got something to put in you,
I've got something to put in you,
At the gay bar, gay bar, gay bar
Wow!

Solo 2

You're a superstar, at the gay bar
You're a superstar, at the gay bar
Yeah! you're a superstar, yeah at the gay bar
You're a superstar, at the gay bar
Superstar
Super, super, superstar!


| ()  grace note (play these if you wish)
| b   bend
| br  release bend
| bbr bend then release bend
| /   slide up
| \   slide down
| h   hammer-on
| p   pull-off
| ~   vibrato
| +   harmonic
| x   Mute note
===============================================================================

            
            
Suggest correction
Creating personal tab
Creating personal tab
You can edit any tab online and save it as your Personal.

You can edit, replace or remove any tab part or add personal notes – all changes will be seen only by you.

Personal tabs can be accessed anytime from any device, even offline.
Learn more »
comments
print report bad tab
1 comment total.
0 reply
bebert 5,342 Aug 29, 2014 10:02 AM

For me, this version is the best (espacially for the solos). Congrats!

guest
Wanna post a correction for this tab? Suggest correction