Oops, an error
Loading. Please wait.

Getting Into The Jam Bass Tab

153 views 1 this week
no commentswrite comment
1 2 3 4 5
please rate
add to favorites
launch autoscroll
font size
0
reset
guitar tuner
Autoscroll
slow
fast
+/-
esc
set tempo
stop
Help us to improve Ultimate-Guitar.com Take our survey!
×
Author
Difficulty
-------------------------------------------------------------------------------
                             Getting Into The Jam - Electric Six
-------------------------------------------------------------------------------
Album: Fire
Tabbed by: CSA
E-mail: Sounderoxner@gmail.com

Tuning:Standard


Intro
G|--------------------------|
D|--------------------------| X4
A|----------------7---------|
E|--7--7--7--77-7----0------|

Verse One
G|-------------------|    G|-----------------|    G|-------------------|
D|-------------------| X3 D|-----------------|    D|-------------------| X4
A|--------5-----2----|    A|--------5-----2--|    A|--------5-----2----|
E|--7-7-5---3-2---0--|    E|--7-7-5---3-2----|    E|--7-7-5---3-2------|

Chorus
G|--------------------------|
D|--------------------------| X4
A|--------------------5-----|
E|--7--7--7--77-7--3--------|

Verse One

Chorus X8

Bridge
G|----9------9----9------9--------------------------------------------------|
D|--------------------------------------------------------------------------|
A|--7--77-7-----7--77-7----7-------------------5--------------------5-------|
E|---------------------------7--7--7--77-7--3-----7--7--7--77-7--3----------|

G|----9------9----9------9---| G|-------------------|    G|-----------------|
D|---------------------------| D|-------------------| X3 D|-----------------|
A|--7--77-7-----7--7--7------| A|--------5-----2----|    A|--------5-----2--|
E|---------------------------| E|--7-7-5---3-2---0--|    E|--7-7-5---3-2----|

Intro

G|-------------------|
D|-------------------| X4
A|--------5-----2----|
E|--7-7-5---3-2---0--|

G|-----------------------|     G|---------------------------|
D|-----------------------| X3  D|---------------------------|
A|--------------------5--|     A|---------------------------|
E|--7--7--7--77-7--3-----|     E|--7--7--7--77/191919191919-|

G|-----------------------|
D|-----------------------| X4
A|--------------------5--|
E|--7--7--7--77-7--3-----|

G|-----------------------|     G|--------------------|
D|-----------------------| X3  D|--------------------|
A|--------5-----2--------|     A|--------5-----2---2-|
E|--7-7-5---3-2---0------|     E|--7-7-5---3-2---0---|


| /  slide up
| \  slide down
| h  hammer-on
| p  pull-off
| ~  vibrato
| +  harmonic
| x  Mute note
===============================================================================
Suggest correction
Give kudos to tab author, rate the tab!
1 2 3 4 5
comments
print report bad tab
guest
You may want to rate the tab now too:
select rating
Please do not post tabs as comments. Select "correction" instead!