Oops, an error
Loading. Please wait.

Getting Into The Jam Tab

version 2
version 2

Whole song

485 views 3 this week
no commentswrite comment
1 2 3 4 5
please rate
add to favorites
launch autoscroll
font size
0
reset
how to read this tab
guitar tuner
Autoscroll
slow
fast
+/-
esc
set tempo
stop
Help us to improve Ultimate-Guitar.com Take our survey!
×
Author
Electric Six - Getting Into The Jam

the song starts with some breathing then the band come in
this is played 4 times
0:06 - 0:14
e----------------------------
b----------------------------
g----------------------------
d-9-9-9-9-9--2-2-2-2---------
a-9-9-9-9-9--2-2-2-2---------
e-7-7-7-7-7--0-0-0-0---------

then this is played 8 times
0:14 - 0:29
e----------------------------
b----------------------------
g------9/10-9/10-9/10hold----
d-9-9------------------------
a-9-9------------------------
e-7-7------------------------

then this is played 4 times
0:29 - 0:39
e------------------------
b------------------------
g------------------------
d-9-9-9-9-9----5-5-5-----
a-9-9-9-9-9----5-5-5-----
e-7-7-7-7-7--0-3-3-3-----

then back to this 8 times
0:39 - 0:54
e----------------------------
b----------------------------
g------9/10-9/10-9/10hold----
d-9-9------------------------
a-9-9------------------------
e-7-7------------------------

then this is played 8 times
0:54 - 1:11
e------------------------
b------------------------
g------------------------
d-9-9-9-9-9----5-5-5-----
a-9-9-9-9-9----5-5-5-----
e-7-7-7-7-7--0-3-3-3-----

then play this once
1:11 - 1:16
e-----------------------------------
g-----------------------------------
b-----------------------------------
d-14-14-14-14-14-12h14-12h14-12h14--
a-14-14-14-14-14--------------------
e-12-12-12-12-12--------------------

thats all the guitar riffs and i cant be bothered writing the rest out because
he playes them all again and i cant be bothered with time stamps and stuff, but
its not hard...TRUST ME!

DANIEL ALEXANDER REID
Suggest correction
Give kudos to tab author, rate the tab!
1 2 3 4 5
comments
print report bad tab
guest
You may want to rate the tab now too:
select rating
Please do not post tabs as comments. Select "correction" instead!