Oops, an error
Loading. Please wait.

I Invented The Night Bass Tab

version 1
version 1

Whole song

Interactive

162 views 1 this week
no commentswrite comment
1 2 3 4 5
please rate
add to favorites
launch autoscroll
font size
0
reset
guitar tuner
Autoscroll
slow
fast
+/-
esc
set tempo
stop
Help us to improve Ultimate-Guitar.com Take our survey!
×
Author
Difficulty
-------------------------------------------------------------------------------
                    I Invented The Night - Electric Six
-------------------------------------------------------------------------------
Album:Fire
 

Tuning:Standard

Intro/Verse
G|--------------------------------------------------|
D|--------------------------------------------------| X3
A|--------------------------------------------------|
E|--8-8--8--8-10-10--10-10-5-5--5--3-5-5--5-3-5-----|

G|--------------------------------------------------|
D|----------------------------7---------------------| 
A|--------------------------------------------------|
E|--8-8--8--8-10-10--10-10-5-5--5-3-5-3h5-3h5-3h5---|

G|------------------------------------------------------|
D|------------------------------------------------------|
A|------------------------------------------------------|
E|--1-1-1-1-1-1-1-3-5-5-5-5-5-5-5-5-7-8-8-8-8-8-8-8-8---|

G|---------------------------------|
D|---------------------------------|
A|---------------------------------|
E|-10-10-10-10-10-10-10-10---------|

Chorus
G|----------------------------------------------------------------------|
D|----------------------------------------------------------------------|
A|------------------------------------------------3--3--3-3-5--5--------|
E|--1--1-3-5--5-5-5-5-5-3--1--1-3-5--5-5-5-5-5-5-----------------1--1/3-|

Verse Two
G|--------------------------------------------------|
D|--------------------------------------------------| X3
A|--------------------------------------------------|
E|--8-8--8--8-10-10--10-10-5-5--5--3-5-5--5-3-5-----|

G|------------------------------------------------------|
D|------------------------------------------------------|
A|------------------------------------------------------|
E|--1-1-1-1-1-1-1-3-5-5-5-5-5-5-5-5-7-8-8-8-8-8-8-8-8---|

G|---------------------------------|
D|---------------------------------|
A|---------------------------------|
E|-10-10-10-10-10-10-10-10---------|

Chorus

Guitar Solo
G|--------------------------------------------------------------------|
D|--------------------------------------------------------------------|
A|--------------------------------------------------------------------|
E|--8-8\-8-8-8-8-10-10-8h10-10-10-8--5-5-3h5-5-0-3-5--0-3-5--3/-------|

G|--------------------------------------------------------------------|
D|----------------------------------------------------7-7-5-5---------|
A|------------------------------------------------------------7-7-----|
E|--8-8-6h8-8--5-8-10-10-8h10-10-10-8-5--5--5--5-5-5------------------|

Bridge
G|---------------------------------------------------------------------|
D|---------------------------------------------------------------------|
A|----------------------------------3-3-3-3-3-3-3-----3-3-3-----3-3-3--|
E|--3-3-3-3-3-3-3-3-5-5-5-5-5-5-5-3---------------3-5-------3h5-------5|

G|---------------------------------------------------------------------|
D|---------------------------------------------------------------------|
A|---------------------------------------------------------------------|
E|--3-3-3-3-3-3-3-3-5-5-5-5-5-5-5-5-6-6-6-6-6-6-6-6-8-8-8-8-8-8-8-8\---|

Verse Three
G|---------------------------------------------------------------|
D|---------5-7-5----------7-9-7----------------------------------|
A|-----5-7-------7----7-9-------9--------------------------------|
E|--8--------------10-------------5--5---5--3-5-5--5-3-5---------|

G|---------------------------------------------------------------|
D|---------5-7-5----------7-9-7----------------------------------|
A|-----5-7-------7----7-9-------9--------------------------------|
E|--8--------------10-------------5--5---5--3-5-5-55-5-5-3-------|

G|------------------------------------------------------|
D|------------------------------------------------------|
A|------------------------------------------------------|
E|--1-1-1-1-1-1-1-3-5-5-5-5-5-5-5-5-7-8-8-8-8-8-8-8-8---|

G|---------------------------------|
D|---------------------------------|
A|---------------------------------|
E|-10-10-10-10-10-10-10-10---------|

Chorus Two
G|----------------------------------------------------------------------|
D|----------------------------------------------------------------------|
A|---------------------------------------------3-3-3-3-3-3-3-5-5-3------|
E|-1--1-3-5-5-3-5-5-5-3--1--1-3-5--5-5-5-5-5-5---------------------1-1/3|

Outro
G|--------------------------------------------------|
D|--------------------------------------------------| X2
A|--3--3--3-3-3---5-5-3-----------------------------|
E|--------------5-------1--1--3---------------------|

G|--------------------------------------------------|
D|--------------------------------------------------|
A|--3--3--3-3-3---5-5-3-----------------------------|
E|--------------5-------1--1--3--5------------------|


| /  slide up
| \  slide down
| h  hammer-on
| p  pull-off
| ~  vibrato
| +  harmonic
| x  Mute note
===============================================================================
Suggest correction
What's this?
You can suggest a correction to this tab. Community and Mods will review your correction and vote to approve or reject it.
comments
We did not receive enough feedback on this tab! Please rate:
print report bad tab
1 2 3 4 5
guest
You may want to rate the tab now too:
select rating
Please do not post tabs as comments. Select "correction" instead!