Oops, an error
Loading. Please wait.

I Wish This Song Was Louder Bass Tab

196 views 1 this week
no commentswrite comment
1 2 3 4 5
please rate
add to favorites
launch autoscroll
font size
0
reset
guitar tuner
Tab Pro tools
  • play this tab
  • loop segment
  • change instrument
  • show fretboard
  • metronome
Autoscroll
slow
fast
+/-
esc
set tempo
stop
Contributor
Difficulty
novice
-------------------------------------------------------------------------------
                    I Wish This Song Was Louder - Electric Six
-------------------------------------------------------------------------------
Album: Switzerland
Tabbed by: CSA
E-mail: Sounderoxner@gmail.com

Tuning:Standard

Chorus 1(0:37
G|---------------------------|
D|---------------------------| X2
A|------------------6-6------|
E|--1-1-1-1-3-3-3-3-----6-6--|

Verse 2
G|--------------------------------------------------------------------------|
D|--------------------------------------------------------------------------|
A|--5-5-5-5-6-6-6-6-8-8-8-8-8-8-8-8\-5-5-5-5-6-6-6-6-8-8-8-8-8-8-8----------|
E|-----------------------------------------------------------------8--------|

G|--------------------------------------------------------------------------|
D|---------------------------------------------------------------10\7-------|
A|--5-5-5-5-6-6-6-6-8-8-8-8-8-8-8-8\-5-5-5-5-6-6-6-6-8-8-8-8-8-8------------|
E|--------------------------------------------------------------------------|

G|--------------------------------------------------------------------------|
D|--------------------------------------------------------------------------|
A|--5-5-5-5-6-6-6-6-8-8-8-8-8-8-8-8\-5-5-5-5-6-6-6-6-8-8-8-8-8-8-8-8\-------|
E|--------------------------------------------------------------------------|

Chorus 2
G|--------------------------------------------------|
D|--------------------------------------------------| X2
A|----------------------------------6-6-6\----------|
E|--1-1-1-1-1-1-1-1-3-3-3-3-3-3-3-3--------6-6-6\---|

Bridge
G|----------------------------------------|
D|----------------------------------------| X4
A|----------/66-6-6-6\--------------------|
E|--1-1-1-1-----------3-3-3-3/66-6-6-6\---|

Verse 3
G|--------------------------------------------------------------------------|
D|--------------------------------------------------------------------------|
A|--5-5-5-5-6-6-6-6-8-8-8-8-8-8-8-8\-5-5-5-5-6-6-6-6-8-8-8-8-8-8-8----------|
E|-----------------------------------------------------------------8--------|

G|-----------------------------------------------------------------------|
D|-----------------------------------------------------------------------| X2
A|--5-5-5-5-6-6-6-6-8-8-8-8-8-8-8-8\-5-5-5-5-6-6-6-6-8-8-8-8-8-8-8-8\----|
E|-----------------------------------------------------------------------|

G|--------------------------------------------------------------------------|
D|--------------------------------------------------------------------------|
A|--5-5-5-5-6-6-6-6-8-8-8-8-8-8-8-8\-5-5-5-5-6-6-6-6-8-8-8-8-8-8-8----------|
E|-----------------------------------------------------------------8--------|

G|--------------------------------------------------------------------------|
D|--------------------------------------------------------------------------|
A|--5-5-5-5-6-6-6-6-8-8-8-8-8-8-8-8\-5-5-5-5-6-6-6-6-8-8-8-8-8-8-8-8--------|
E|--------------------------------------------------------------------------|

Chorus 3
G|--------------------------------------------------------------------------|
D|--------------------------------------------------------------------------|
A|----------------------------------6-6-6\----------------------------------|
E|--1-1-1-1-1-1-1-1-3-3-3-3-3-3-3-3---------6-6-6\--1-1-1-1-1-1-1-1---------|

G|--------------------------------------------------------------------------|
D|----------------------8\--------------------------------------------------|
A|------------------6-6--------8\-------------------------------------------|
E|--3-3-3-3-3-3-3-3--------6-6----1-1-1-1-1-1-1-1-3-3-3-3-3-3-3-3-----------|

G|--------------------------------------------------------------------------|
D|--------------------------------------------------------------------------|
A|--6-6-6\-----------------------------------------6-6-6\-------------------|
E|----------6-6-6\-1-1-1-1-1-1-1-1-3-3-3-3-3-3-3-3--------6-6-6\------------|

Outro
G|--------------------------------------|
D|--------------------------------------|
A|--5-5-5-5-6-6-6-6-8-8-8-8-8-8-8-8-5---|
E|--------------------------------------|



| /  slide up
| \  slide down
| h  hammer-on
| p  pull-off
| ~  vibrato
| +  harmonic
| x  Mute note
===============================================================================
comments
We did not receive enough feedback on this tab! Please rate:
print report bad tab
1 2 3 4 5
I want to post or [tab]
guest
You may want to rate the tab now too:
select rating
Please do not post tabs as comments. Select "correction" instead!