Oops, an error
Loading. Please wait.

Infected Girls Bass Tab

788 views 27 this week
no commentswrite comment
1 2 3 4 5
please rate
add to favorites
launch autoscroll
font size
0
reset
guitar tuner
Autoscroll
slow
fast
+/-
esc
set tempo
stop
Help us to improve Ultimate-Guitar.com Take our survey!
×
Author
Difficulty
-------------------------------------------------------------------------------
                           Infected Girls - Electric Six
-------------------------------------------------------------------------------
Album: Switzerland
Tabbed by: CSA
E-mail: Sounderoxner@gmail.com

Tuning:Standard

This is a transcription of the synth bass line on the album. The Main riff is 
slightly varied and played on the bass guitar live and the whole song is played a 
half step higher.

Intro/Verse/Chorus/Outro
G|-------------------------------|
D|-----------------5-5-----------| X6
A|----2---5------2-----5-5-2-----|
E|--0---0---3-0------------------|

Live Keith plays it:

G|-------------------------------|
D|-------------------------------|
A|----3---7-7-3--3-----7-7-3-----|
E|--1---1----------4-4-----------|

Pre-Chorus
G|-------------------------------|
D|-------------------------------| X2
A|----------5-------2------------|
E|--0---3-------3----------------|

Chorus/Verse X8

Pre-Chorus X2

Chorus X4

Bridge
G|-------------|
D|-------------| X24
A|--0--2--2----|
E|-------------|

Live Keith plays:
G|-------------|
D|-------------| X24
A|--3--3-33----|
E|-------------|

Pre-Chorus X2

Chorus/Outro X11


| /  slide up
| \  slide down
| h  hammer-on
| p  pull-off
| ~  vibrato
| +  harmonic
| x  Mute note
===============================================================================
Suggest correction
Give kudos to tab author, rate the tab!
1 2 3 4 5
comments
print report bad tab
guest
You may want to rate the tab now too:
select rating
Please do not post tabs as comments. Select "correction" instead!