Oops, an error
Loading. Please wait.

Mr Woman Bass Tab

148 views 6 this week
no commentswrite comment
1 2 3 4 5
please rate
add to favorites
launch autoscroll
font size
0
reset
guitar tuner
Autoscroll
slow
fast
+/-
esc
set tempo
stop
Help us to improve Ultimate-Guitar.com Take our survey!
×
Author
Difficulty
-------------------------------------------------------------------------------
                           Mr. Woman - Electric Six
-------------------------------------------------------------------------------
Album: Switzerland
Tabbed by: CSA
E-mail: Sounderoxner@gmail.com

Tuning:Standard

Verse 
G|-----------------------------------------------------------------------|
D|-----------------------------------------------------------------------| X4
A|--------3-3-3-3-------------------6-6-6-3-3-3-3------------------------|
E|--6-6-6---------3-3-3-3-3-3-3-3-3---------------3-3-3-3-3-3-3-3-3------|

G|--------------------------------------------------------------------------|
D|--------------------------------------------------------------------------|
A|----------------3-3-3-3-3-3-3-3-3-------3-3-3-3---------------------------|
E|--6-6-6-1-1-1-1-------------------6-6-6---------3-3-3-3-3-3-3-3-3---------|

G|-----------------------------------|
D|-----------------------------------|
A|----------------3-3-3-3-3-3-3-3-3--|
E|--6-6-6-1-1-1-1--------------------|

G|-----------------------------------|
D|-----------------------------------| X4
A|--------3-3-3-3--------------------|
E|--6-6-6---------3-3-3-3-3-3-3-3-3--|

Solo/Chorus
G|-----------------------------------|
D|-----------------------------------| X4
A|----------------3-3-3-3-3-3-3-3-3--|
E|--6-6-6-1-1-1-1--------------------|

Verse 2
G|-----------------------------------------------------------------------|
D|-----------------------------------------------------------------------| X3
A|--------3-3-3-3-------------------6-6-6-3-3-3-3------------------------|
E|--6-6-6---------3-3-3-3-3-3-3-3-3---------------3-3-3-3-3-3-3-3-3------|

G|--------------------------------------------------------------------------|
D|--------------------------------------------------------------------------|
A|----------------3-3-3-3-3-3-3-3-3---------------3-3-3-3-------------------|
E|--6-6-6-1-1-1-1-------------------6-6-6-1-1-1-1---------0-3-0-3-----------|

G|-----------------------------------|
D|-----------------------------------| X2
A|----------------3-3-3-3-3-3-3-3-3--|
E|--6-6-6-1-1-1-1--------------------|

G|-----------------------------------------------------------------------|
D|-----------------------------------------------------------------------| X2
A|--------3-3-3-3-------------------6-6-6-3-3-3-3------------------------|
E|--6-6-6---------3-3-3-3-3-3-3-3-3---------------3-3-3-3-3-3-3-3-3------|

Outro/Chorus
G|--------------------------------------------------------------------------|
D|--------------------------------------------------------------------------|
A|----------------3-3-3-3-3-3-3-3-3---------------3-3-3-3-------------------|
E|--6-6-6-1-1-1-1-------------------6-6-6-1-1-1-1---------0-3-0-3-----------|

G|--------------------------------------------------------------------------|
D|--------------------------------------------------------------------------|
A|----------------3-3-3-3-3-3-3-3-3---------------3-3-3-3-3-3-3-3-3---------|
E|--6-6-6-1-1-1-1-------------------6-6-6-1-1-1-1-------------------3-------|


| /  slide up
| \  slide down
| h  hammer-on
| p  pull-off
| ~  vibrato
| +  harmonic
| x  Mute note
===============================================================================
Suggest correction
What's this?
You can suggest a correction to this tab. Community and Mods will review your correction and vote to approve or reject it.
comments
We did not receive enough feedback on this tab! Please rate:
print report bad tab
1 2 3 4 5
guest
You may want to rate the tab now too:
select rating
Please do not post tabs as comments. Select "correction" instead!