Oops, an error
Loading. Please wait.

Naked Pictures Bass Tab

version 1
version 1

Whole song

Interactive

1,391 views 1 this week
no commentswrite comment
1 2 3 4 5
excellent!
x 4
add to favorites
launch autoscroll
font size
0
reset
guitar tuner
Tab Pro tools
  • play this tab
  • loop segment
  • change instrument
  • show fretboard
  • metronome
Autoscroll
slow
fast
+/-
esc
set tempo
stop
Contributor
Difficulty
intermediate
Band: Electric Six
Members: Dick Valentine, M., Surge Joebot, Disco, The Rock-N-Roll Indian (Line up at the 
of album in 2003)
Song: Naked Pictures (Of Your Mother)
Album: Fire
Tabbed By: Scott Anderson
Symbol key: \ - slide down
            h - hammer on

Tuning: EADG (standard)

If you think that there are errors with this tab, please leave a comment or PM me before 
rate it so I can correct it.

Bass comes in at around 0:07, but you can play the guitar intro if you like: (The second 
you play this riff, you leave out the last seven notes shown below.)

G|----------------------------------|
D|----------------------------------|
A|-----------6-----------4-4-4-4----|
E|-4-4-4-4-4---4-0-0-0-0------------|x2


Or play this single note and slide where the bass enters, during the drum fill:

G|-----|
D|-----|
A|-4\--|
E|-----|


1st pre-verse/verse:

G|----------------------------------|
D|----------------2-2---------------|
A|------2-3---2-3-----2-3-4-4-4-2---|
E|-4-4------4-----------------------|x10


1st chorus:

G|-----------------------------|
D|-----------------------------|
A|-----------5-4-4-4-4---------|
E|-4-4-4-4-4-----------5-5-5-5-|x3


Bridge:

G|----------------------------------------|
D|-----8-10-----8-8-10-----8-10-----8-8-10|
A|-8-8------8-8--------8-8------8-8-------|
E|----------------------------------------|

G|--------------------------------------------|
D|-----8-10-----8-8-10-----8-10---------------|
A|-8-8------8-8--------8-8------8h6-----------|
E|----------------------------------8h6-4-----|


2nd pre-verse/verse:

G|----------------------------------|
D|----------------2-2---------------|
A|------2-3---2-3-----2-3-4-4-4-2---|
E|-4-4------4-----------------------|x12


2nd chorus:

G|-----------------------------|
D|-----------------------------|
A|-----------5-4-4-4-4---------|
E|-4-4-4-4-4-----------5-5-5-5-|x3


Bridge/outro:

G|----------------------------------------|
D|-----8-10-----8-8-10-----8-10-----8-8-10|
A|-8-8------8-8--------8-8------8-8-------|
E|----------------------------------------|

G|--------------------------------------------|
D|-----8-10-----8-8-10-----8-10---------------|
A|-8-8------8-8--------8-8--------------------|
E|-------------------------------------4------|
comments
print report bad tab
I want to post or [tab]
guest
You may want to rate the tab now too:
select rating
Please do not post tabs as comments. Select "correction" instead!