Oops, an error
Loading. Please wait.

Night Vision Bass Tab

267 views 1 this week
no commentswrite comment
1 2 3 4 5
please rate
add to favorites
launch autoscroll
font size
0
reset
guitar tuner
Autoscroll
slow
fast
+/-
esc
set tempo
stop
Help us to improve Ultimate-Guitar.com Take our survey!
×
Author
Difficulty
-------------------------------------------------------------------------------
                           Night Vision - Electric Six
-------------------------------------------------------------------------------
Album: Switzerland
Tabbed by: CSA
E-mail: Sounderoxner@gmail.com

Tuning:Standard

Intro (0:19)
G|--------------------------------------------------------------------------|
D|--------------------------------------------------------------------------|
A|--3-3--7-7--5-5-5--3-3--7-7---5-5-5-5-5-5-5-5-3-3-3-3-7-7-7-7-5-5-5-5-----|
E|--------------------------------------------------------------------------|

G|--------------------------------------------------------------------------|
D|--------------------------------------------------------------------------|
A|5-5-5-5-3-3-3-3-7-7-7-7-7-7-7-9-10-10-------------------------------------|
E|--------------------------------------------------------------------------|

Chorus
G|--------------------------------------------------------------------------|
D|--------------------------------------------------------------------------|
A|--5-5-5-5-3-3-3-3--------------5-5-5-0-3-3-3-3----------------------------|
E|------------------0-0-0-2--3-3-----------------0-0-0-0-2-X-3-3------------|

G|--------------------------------------------------------------------------|
D|--------------------------------------------------------------------------|
A|--5-5-5-0-3-3-3-0--------------5--5--3--3--7-7-7-9--10-10-----------------|
E|------------------0-0-0-2--3-3--------------------------------------------|

Verse
G|--------------------------------------------------------------------------|
D|--------------------------------------------------------------------------|
A|--5-5-5-5-5-5-5-5-3-3-3-3-3-3-3-3-0-0-0-0-0-0-0-0-5-5-5-5-5-5-5-0---------|
E|--------------------------------------------------------------------------|

G|--------------------------------------------------------------------------|
D|--------------------------------------------------------------------------|
A|--5-5-5-5-5-5-5-5-3-3-3-3-3-3-3-3-----------------5-5-5-5-5---3-----------|
E|----------------------------------0-0-0-0-0-0-0-0-----------5---5---------|

G|--------------------------------------------------------------------------|
D|--------------------------------------------------------------------------|
A|--5-5-5-5-5-5-5-5-3-3--7-7--5-5-5----3-3--7-7--5-5-5-5-5-5-5-5-3-3-3-3----|
E|--------------------------------------------------------------------------|

G|--------------------------------------------------------------------------|
D|--------------------------------------------------------------------------|
A|--7-7-7-7-5-5-5-5-5-5-5-5-3-3-3-3-7-7-7-7-7-7-7-9--10-10------------------|
E|--------------------------------------------------------------------------|

Chorus 2A
G|--------------------------------------------------------------------------|
D|--------------------------------------------------------------------------|
A|--5-5-5-0-3-3-3-0--------------5-5-5-0-3-3-3-0----------------------------|
E|------------------0-0-0-2--3-3-----------------0-0-0-0-2-X-3-3------------|

G|--------------------------------------------------------------------------|
D|--------------------------------------------------------------------------|
A|--5-5-5-0-3-3-3-0--------------5--5--3--3--7-7-7-9--10-10-----------------|
E|------------------0-0-0-2--3-3--------------------------------------------|

Chorus 2B
G|--------------------------------------------------------------------------|
D|--------------------------------------------------------------------------|
A|--5-5-5-0-3-3-3-0--------------5-5-5-0-3-3-3-0-7-7-7-9--10-10-------------|
E|------------------0-0-0-2--3-3--------------------------------------------|

Chorus 2C
G|--------------------------------------------------------------------------|
D|--------------------------------------------------------------------------|
A|--5-5-5-0-3-3-3-0--------------5-5-5-5-0-3-3-3-3/7-7-7-7-7-7-7-7----------|
E|------------------0-0-0-2--3-3--------------------------------------------|

Bridge (1:55)
G|--------------------------------------------------------------------------|
D|--------------------------------------------------------------------------|
A|----------------------------------------------4---------------------------|
E|--2-2-2-2-2-2-2-2-3-3-3-3-3-3-3-3-5-5-5-5-5-5---5-0-0-0-0-0-0-0-0---------|

G|--------------------------------------------------------------------------|
D|--------------------------------------------------------------------------|
A|--------------------------------------------------------------------------|
E|--2-2-2-2-2-2-2-2-3-3-3-3-3-3-3-3-5-5-5-5-5-5-5-5-7-7-7-7-8-8-8-----------|

Breakdown

Intro X1

Chorus 2A

Chorus 2B X6


| /  slide up
| \  slide down
| h  hammer-on
| p  pull-off
| ~  vibrato
| +  harmonic
| x  Mute note
===============================================================================
Suggest correction
Give kudos to tab author, rate the tab!
1 2 3 4 5
comments
print report bad tab
guest
You may want to rate the tab now too:
select rating
Please do not post tabs as comments. Select "correction" instead!