Oops, an error
Loading. Please wait.

Pulling The Plug On The Party Bass Tab

89 views 1 this week
no commentswrite comment
1 2 3 4 5
please rate
add to favorites
launch autoscroll
font size
0
reset
guitar tuner
Autoscroll
slow
fast
+/-
esc
set tempo
stop
Help us to improve Ultimate-Guitar.com Take our survey!
×
Author
Difficulty
-------------------------------------------------------------------------------
               Pulling The Plug On The Party - Electric Six
-------------------------------------------------------------------------------
Album: Switzerland
Tabbed by: CSA
E-mail: Sounderoxner@gmail.com

Tuning:Standard

Intro
G|----------------------------------------|
D|--4----4----4----4----------------------|
A|----------------------------------------|
E|----------------------7-7-7-7-5-5-5-----|

Verse 1
G|---------------------------|
D|--4------------------------| X6
A|----4-5--------------------|
E|---------7-7-7-7-5-5-5-----|

G|-----------------------------------|
D|--------------------------2--------|
A|-----------------------------------|
E|--3-3-3-3-3-3-3-3-0-0-0-0----------|

Chorus 
G|--------------------------------------------------------------------------|
D|4-------------------------------------------------------------------------|
A|--4-5--5-7--7-9-----4-5--5-7--7-9-----4-5--5-7--7-9-----4-5---------------|
E|----------------0-2---------------0-2---------------0-2------7-7-7-7-5-5-5|

Verse 1 X1

Chorus 2
G|--------------------------------------------------------------------------|
D|4-------------------------------------------------------------------------|
A|--4-5--5-7--7-9-----4-5--5-7--7-9-----4-5--5-7--7-9-----4-5--5-7--7/9-7---|
E|----------------0-2---------------0-2---------------0-2-------------------|

Bridge
G|--------------------------------------------------------------------------|
D|--------------------------------------------------------------------------|
A|--7-7-7-7-7-7-7-7-9-9-9-9-9-9-9-9-5-5-5-5-5-5-5-5-0-0-0-0-0-0-0-0---------|
E|--------------------------------------------------------------------------|

G|--------------------------------------------------------------------------|
D|------------------------------------------7-7-7-7-------------------------|
A|--7-7-7-7-7-7-7-7-9-9-9-9-9-9-9-9-5-5-5-5---------0-0-0-0-9-9-7-7---------|
E|--------------------------------------------------------------------------|

G|--------------------------------------------------------------------------|
D|--------------------------------------------------------------------------|
A|--7-7-7-7-7-7-7-7-9-9-9-9-9-9-9-9-5-5-5-5-5-5-5-5-0-0-0-0-0-0-0-0---------|
E|--------------------------------------------------------------------------|

G|-------------------------------------|
D|-------------------------------------|
A|--7-7-7-7-7-7-7-7-9-9-9-9-9-9-9-7----|
E|-------------------------------------|

Verse 3
G|--------------------------------------------------------------------------|
D|4-------------------------------------------------------------------------|
A|--4-5--5-7--7-9-----4-5--5-7--7-9-----4-5--5-7--7-9-----4-5--5-7--7-9-----|
E|----------------0-2---------------0-2---------------0-2-------------------|

G|------------------------------------------|
D|------------------------------------------|
A|------4-5--5-7--7-9-----4-5--5-7--7/9-7---|
E|--0-2---------------0-2-------------------|

G|-------------------------------------|
D|-------------------------------------| X4
A|-----------5-5-5-5-7-7-7-7-9-9-9-9---|
E|--0-2-2-2-2--------------------------|

Bridge X1

Outro
G|--------------------------------------------------------------------------|
D|4-------------------------------------------------------------------------|
A|--4-5--5-7--7-9-----4-5--5-7--7-9-----4-5--5-7--7-9-----4-5---------------|
E|----------------0-2---------------0-2---------------0-2------7-7-7-7-5-5-5|

G|--------|
D|--------|
A|--------|
E|--0-2---|


| /  slide up
| \  slide down
| h  hammer-on
| p  pull-off
| ~  vibrato
| +  harmonic
| x  Mute note
===============================================================================
Suggest correction
Give kudos to tab author, rate the tab!
1 2 3 4 5
comments
print report bad tab
guest
You may want to rate the tab now too:
select rating
Wanna post a correction for this tab? Suggest correction