Oops, an error
Loading. Please wait.

Vengeance And Fashion bass

365 views 3 this week
3 commentsread comments
1 2 3 4 5
2 more votes to show rating
add to favorites
×
Save as Personal and add changes to this tab that will be seen only by you. Learn more ›
×
You can save this tab as Personal to edit and correct it or add notes. All changes will be seen only by you. Learn more »
launch autoscroll
font size
0
reset
guitar tuner
edit
Autoscroll
slow
fast
+/-
esc
set tempo
stop
Author
Difficulty
-------------------------------------------------------------------------------
                             Vengeance and Fashion - Electric Six
-------------------------------------------------------------------------------
Album: Fire
Tabbed by: CSA
E-mail: Sounderoxner@gmail.com

Tuning:Standard


Intro
Slide from 15 Only the first time.
G|----------------------------------------------------------------|
D|--------------------------------------5--3------7--7-5----------| X2
A|--15/-7-7-5-7--7-5-7--7-5-7--5-------------5-----------7--------|
E|--------------------------------5--3---------5------------------|

Verse A
G|----------------------------------------------------------------|
D|----------------------------------------------------------------| X2
A|--7-7-5-7--7-5-7--7-5-7--7-5\---------------------------5-------|
E|-----------------------------3-3-p0-3-3-0-5--5--3h5-5-7---------|

Verse B
G|------------------------------------------------------------------------|
D|-------------------10-----10-----7----7---------------------------------|
A|--7\----2-------10-----10------7----7-----------5-----------------------|
E|-----3-----3/-8--------------5----------3-0-3-5---5-0-7--7-7-7-7-7-7-7--|

G|------------------------------------------------------------------------|
D|----------------------7-9p7---7-----------------------------------------|
A|----------5-------7h9-------9---9\---------5------------------5---------|
E|--3-0-3-5---5-0-7------------------3-0-3-5---5-0-7--7-7-7-7-7-----------|

Intro

Verse A X2

Verse C
G|------------------------------------------------------------------------|
D|-------------------10-----10-----7----7---------------------------------|
A|--7\----2-------10-----10------7----7-----------5-----------------------|
E|-----3-----3/-8--------------5----------3-0-3-5---5-0-7--7-7-7-7-7-7-7--|

G|-------------------------------------------------------------------|
D|-------------------------------------------------------------------|
A|----------5-------------7p0--------------5------------------5------|
E|--3-0-3-5---5-0-7--7-7------7p5--3-0-3-5---5-0-7--7-7-7-7-7--------|

Solo 
G|-------------------------------------------------------------------|
D|-------------------------------------------------------------------| X2
A|--7-7-5-7--7--7--7--7-5--------------3--3-3------------------------|
E|------------------------5\-3-3-0-3-5--------5-5-5/-----------------|

G|-------------------------------------------------------------------|
D|-------------------------------------------------------------------|
A|--7-7-5-7--7-5-7--7-5-7-5--------------3--3-3----------------------|
E|--------------------------5\-3-3-0-3-5--------5-5-5/---------------|

G|-------------------------------------------------------------------|
D|-------------------------------------------------------------------|
A|--7---5-7--5-7---5-7-5-------------------3--3-3-3------------------|
E|----7----------7--------5\-3--3-p0-3-3-3-----------5--5-5----------|

Verse B

Verse A X2

G|------------------------------------------------------------------------|
D|-------------------10-----10-----7----7---------------------------------|
A|--7\----2-------10-----10------7----7-----------5-----------------------|
E|-----3-----3/-8--------------5----------3-0-3-5---5-0-7--7-7-7-7-7-7-7--|

G|------------------------------------------------------------------------|
D|----------------------7-9p7---7-----------------------------------------|
A|----------5-------7h9-------9---9\---------5----------------------------|
E|--3-0-3-5---5-0-7------------------3-0-3-5---5-0-7--7-7-7-7-7-----------|

Outro
G|------------------------------------------------------------------------|
D|------------------------------------------------------------------------|
A|--7--7-7-7-7--7--7--7-7-7--7--7-7-7-7---7--7--7-7-7--7------------------|
E|------------------------------------------------------------------------|


| /  slide up
| \  slide down
| h  hammer-on
| p  pull-off
| ~  vibrato
| +  harmonic
| x  Mute note
===============================================================================

            
            
Suggest correction
Creating personal tab
Creating personal tab
You can edit any tab online and save it as your Personal.

You can edit, replace or remove any tab part or add personal notes – all changes will be seen only by you.

Personal tabs can be accessed anytime from any device, even offline.
Learn more »
Give kudos to tab author, rate the tab!
1 2 3 4 5
comments
print report bad tab
3 comments total.
+1 reply
Stephanavich1 10 Jun 17, 2012 10:40 AM

Been waiting for a tab on this song for several years, thanks alot!

0 reply
Stephanavich1 10 Jun 17, 2012 10:40 AM

Been waiting for a tab on this song for several years, thanks alot!

0 reply
SounderOxnard 826 Jun 21, 2012 02:32 PM

No problem! Let me knwo what you think of my others, Or if you have any other E6 songs you've been waiting for!

guest
You may want to rate the tab now too:
select rating
Wanna post a correction for this tab? Suggest correction