Oops, an error
Loading. Please wait.

Barbarian bass

version 1
version 1

Whole song

Interactive

1,009 views 15 this week
no commentswrite comment
1 2 3 4 5
3 more votes to show rating
add to favorites
×
Save as Personal and add changes to this tab that will be seen only by you. Learn more ›
×
You can save this tab as Personal to edit and correct it or add notes. All changes will be seen only by you. Learn more »
launch autoscroll
font size
0
reset
guitar tuner
edit
Autoscroll
slow
fast
+/-
esc
set tempo
stop
Barbarian
By Electric Wizard
Tabs by ZManStache

Just plucked this out by ear and wanted to tab for my brothers and sisters in doom, Keep it slow and fuzzy.
He plays with his pluck patterns a lot it seems so just have fun! 

[main riff]

G|-----------------------|
D|-----------------------|
A|-------8p7--8p7--4--6--|
E|--6--6-----------------|

[chorus]
G|-----------------|
D|-----------------|
A|-----------------| x3
E|-8--8--8--7--6---|

G|-------------------|
D|-------------------|
A|-------------------|
E|-8--8--8--7--6--9--|


[bridge]

G|---------------------------------------------------------------------------|
D|---------------------------------------------------------------------------|
A|-----8--8--8--6/9--9--9----------------------------------------------------|
E|--6------------------------------------------------------------------------|
For bridge section, On the 6th fret E ,I've given the note but follow the songs pluck pattern.




| p   Pull-off
| /   Slide up


************************************
Suggest correction
Creating personal tab
Creating personal tab
You can edit any tab online and save it as your Personal.

You can edit, replace or remove any tab part or add personal notes – all changes will be seen only by you.

Personal tabs can be accessed anytime from any device, even offline.
Learn more »
Give kudos to tab author, rate the tab!
1 2 3 4 5
comments
print report bad tab
guest
You may want to rate the tab now too:
select rating
Wanna post a correction for this tab? Suggest correction