Oops, an error
Loading. Please wait.

Barbarian Tab

version 2
version 2

Whole song

Interactive

2,416 views 3 this week
no commentswrite comment
1 2 3 4 5
accurate
x 3
add to favorites
launch autoscroll
font size
0
reset
how to read this tab
guitar tuner
Autoscroll
slow
fast
+/-
esc
set tempo
stop
Help us to improve Ultimate-Guitar.com Take our survey!
×
Author
Difficulty
Tuning
novice
C# G# C# F# A# D#
------------------------------------------------------------------------
                    Barbarian - Electric Wizard
------------------------------------------------------------------------
Tabbed by:Kevin
Email: viken1976@gmail.com

Tuning - Db Ab Db Gb Bb Eb


Main riff
[----------------------------------------------------------------------------]
[----------------------------------------------------------------------------]
[----------------------------------------------------------------------------]
[----5---5---12p11--12p11---8--10p8------------------------------------------]
[----5---5---12p11--12p11---8--10p8------------------------------------------]
[----5---5---12p11--12p11---8--10p8------------------------------------------]


2nd riff
[----------------------------------------------------------------------------]
[----------------------------------------------------------------------------]
[----------------------------------------------------------------------------]
[----7---7---7-6---5^--------------------------------------------------------]
[----7---7---7-6---5^--------------------------------------------------------]
[----7---7---7-6---5^--------------------------------------------------------]
Bend the Gb on the 5th fret up a 1/2 step and back to Gb


Chorus part
[----------------------------------------------------------------------------]
[----------------------------------------------------------------------------]
[----------------------------------------------------------------------------]
[----5---5---5-5---5-5---5---5---8-8-8-8-8-8-8-------------------------------]
[----5---5---5-5---5-5---5---5---8-8-8-8-8-8-8-------------------------------]
[----5---5---5-5---5-5---5---5---8-8-8-8-8-8-8-------------------------------]
They sit on this riff for awhile at different times in the song.
Sometimes with some effect like a phaser or wah or something.
Maybe sometimes he bends up a half step on the last 3 or 4 A's on the 8th fret.


He left the northern hills to seek his fortune
A lone barbarian with only death lust to guide
He carved a kingdom of stone
King Conan, sitting on his bloody throne

His black mane sweeps across his face
Grim and silent with a steely blue gaze
Like a panther ready to strike
His blade crashes down to end your life

Conan rules with an iron fist
Many people, they look up to him
Battle prowess, the true measure of a man
You think you're civilized, but you will never understand

Master swordsman of Hyborian Age
His name is legend to this very day
Even gods cower when his sword is unleashed
Nothing dare face him, neither man or beast

Cut a bloody swathe across this battlefield
Red mist rising, break your human shield
Slashed to pieces is to be your fate
Unleash berserker rage none shall escape
Suggest correction
Give kudos to tab author, rate the tab!
1 2 3 4 5
comments
print report bad tab
guest
You may want to rate the tab now too:
select rating
Wanna post a correction for this tab? Suggest correction