Oops, an error
Loading. Please wait.

Black Butterfly Tab

3,086 views 3 this week
1 commentread comment
1 2 3 4 5
please rate
add to favorites
launch autoscroll
font size
0
reset
how to read this tab
guitar tuner
Autoscroll
slow
fast
+/-
esc
set tempo
stop
Help us to improve Ultimate-Guitar.com Take our survey!
×
Author
Difficulty
intermediate
Electric Wizard- Black Butterfly

E|---------------------------------------------|
B|---------------------------------------------|
G|----------------------------5--------------5-|
D|----7--6--5-----7--6--5--7--3-----7--6--5--3-|
A|-5--5--4--3--5--5--4--3--5-----5--5--4--3----|
E|-3-----------3-----------------3-------------|

E|------------------------------------|
B|------------------------------------|
G|------------------------------------|
D|-7-----------------7-6-7-6-7---------|
A|-5-5-5-5-5-5-5-5-5-5-4-5-4-5-5-4-9-2-|
E|---3-3-3-3-3-3-3-3-----------3-2-7-0-|

E|---------------------------|
B|---------------------------|
G|---------------------------|
D|---5-4----7-6----5-4-------|
A|-----------------------2h3-|
E|3-------3------3-----3-----|

E|----------------|
B|----------------|
G|----------------|
D|-13-12h13p12-10-|
A|----------------|
E|----------------|

E|--------------|
B|--------------|
G|--------------|
D|--------------|
A|5-4-3-8-78/78-|
E|3-2-1-6-56/56-|


E|-----------------------------------|
B|-----------------------------------|
G|-----------------------------------|
D|-5~4~3~8-7h8p712~11~10~15-14h15-14-|
A|-----------------------------------|
E|-----------------------------------|


E|----------------------------------|
B|----------------------------------|
G|----------------------------------|
D|----------------------------------|
A|--------------------------1h3-3-1-|
E|1h333333 1h333333-1h333333--------|

E|------------------------------------|
B|------------------------------------|
G|------------------------------------|
D|------------------------------------|
A|--------------------------3h5-7-5-3-|
E|3h555555-3h555555-3h555555----------|

E|--------------------------------------------|
B|--------------------------------------------|
G|--------------------------------------------|
D|--------------------------------------------|
A|-----3--5--3-3---3-5~-5~-5-3---3-5-3---3-5-3|
E|5-3h5------------------------5-------5------|

E|--------------------------------------|
B|--------------------------------------|
G|--------------------------------------|
D|--------------------------------------|
A|-----------------1--1-1-1-------------|
E|3--3-3-3-1----------------3-----------|

Suggest correction
Give kudos to tab author, rate the tab!
1 2 3 4 5
comments
print report bad tab
1 comment total.
0 reply
Tanner Streeter 324 wrote on August 22 2012, 09:05 pm

Actually the tuning for this song should be [ C F A# D# G C ]
Either than that it a great tab.

guest
You may want to rate the tab now too:
select rating
Wanna post a correction for this tab? Suggest correction