Oops, an error
Loading. Please wait.

Black Magic Rituals Perversions Tab

476 views 1 this week
no commentswrite comment
1 2 3 4 5
2 more votes to show rating
add to favorites
launch autoscroll
font size
0
reset
how to read this tab
guitar tuner
Autoscroll
slow
fast
+/-
esc
set tempo
stop
Help us to improve Ultimate-Guitar.com Take our survey!
×
Author
Difficulty
novice
No tabs for this beauty, so I decided to make one.
Tune 2 steps down (C,F,A#,D#,G,C). 


The Riff:

      Q    Q    Q      Q        Q     Q     E.   S  S  S  E    
C ||------------------------|---------------------------------|
G ||------------------------|---------------------------------|
D#||------------------------|---------------------------------|
A#||------------------------|---------------------------------|
F ||--5----5----5s----12----|--11----11----11---11-11-11-11s--|
C ||--3----3----3s----10----|---9-----9-----9----9--9--9--9s--|


  Q    Q    Q      Q        Q     Q     E.   S  S  S  E     
------------------------|---------------------------------||
------------------------|---------------------------------||
------------------------|---------------------------------||
------------------------|---------------------------------||
--4----4----4s----11----|--10----10----10---10-10-10-10s--||
--2----2----2s-----9----|---8-----8-----8----8--8--8--8s--||



Then a variation of the Riff is played (half bends not full):


      Q    Q    Q      Q        Q     Q     H            Q    Q    Q      Q     
C ||------------------------|-------------------------|------------------------|
G ||------------------------|-------------------------|------------------------|
D#||------------------------|-------------------------|------------------------|
A#||------------------------|-------------------------|------------------------|
F ||--5----5----5s----12----|--11----11----11b--------|--4----4----4s----11----|
C ||--3----3----3s----10----|---9-----9-----9b--------|--2----2----2s-----9----|


   Q     Q     H           
-------------------------||
-------------------------||
-------------------------||
-------------------------||
--10----10----10b--------||
---8-----8-----8b--------||


And yeah that's all for the rhythm, the other parts of the song are talk sequences and drumming.
Suggest correction
Give kudos to tab author, rate the tab!
1 2 3 4 5
comments
print report bad tab
guest
You may want to rate the tab now too:
select rating
Wanna post a correction for this tab? Suggest correction