Oops, an error
Loading. Please wait.

Dopethrone Tab

version 2
version 2

Whole song

Interactive

12,409 views 24 this week
no commentswrite comment
1 2 3 4 5
x 3
add to favorites
launch autoscroll
font size
0
reset
how to read this tab
guitar tuner
Autoscroll
slow
fast
+/-
esc
set tempo
stop
Help us to improve Ultimate-Guitar.com Take our survey!
×
Author
Difficulty
novice
“Dopethrone” by Electric Wizard

tabbed by Andrew Reynolds 

tune down 2 ½ steps 


Riff A (verse)
D|---------------------------------------------------------------------------|
A|---------------------------------------------------------------------------|
E|--4h6-6--------------------------------------------------------------------|
B|--------6~-2-2h4-4--2h4-4--------------------------------------------------|


Riff B (prechorus) “Rise!”
D|---------------------------------------------------------------------------|
A|---------------------------------------------------------------------------|
E|--6--6--6--9-9h10p9~----[repeat 3 times]-----------------------------------|
B|------------------------------------------------4—4h5-5p4--2-2-------------|


Riff C (chorus) “Dopethrone!”
D|---------------------------------------------------------------------------|
A|----------------------------------------4----------------------------------|
E|--6--6h7p6~-------------------------------4--------------------------------|
B|------------4--4--7p6h7p6h7p6h7p6h7p6\2------------------------------------|


Riff D (outro)
D|---------------------------------------------------------------------------|
A|----------------------------------------------6~---------------------------|
E|--6--6--6--9-9h10p9---[repeat 3x]--------6--6-----[repeat 20x]-------------|
B|---------------------------------------------------------------------------|

D|---------------------------------------------------------------------------|
A|---------------------------------------------------------------------------|
E|---------------------------------------------------------------------------|
B|--9--9--9-12-12-12-12-11-11-11-11-11---------------------------------------|



Song structure
Riff A x2 guitar alone
Riff A x2 add drums
Riff A x4 add bass
Riff A x4 with verse 1
Riff B x2 with prechorus
Riff C x4 with chorus
Riff A x4
Riff A x4 with verse 2
Riff B x2 with prechorus
Riff C x4 with chorus
Riff C x4 with solo
Riff D
Riff A x?
Suggest correction
Give kudos to tab author, rate the tab!
1 2 3 4 5
comments
print report bad tab
guest
You may want to rate the tab now too:
select rating
Wanna post a correction for this tab? Suggest correction