Oops, an error
Loading. Please wait.

Electric Wizard Tab

version 1
version 1

Whole song

Interactive

12,962 views 30 this week
5 commentsread comments
1 2 3 4 5
x 5
add to favorites
launch autoscroll
font size
0
reset
how to read this tab
guitar tuner
Autoscroll
slow
fast
+/-
esc
set tempo
stop
Help us to improve Ultimate-Guitar.com Take our survey!
×
Author
-------------------------------------------------------------------------------
			     ELECTRIC WIZARD - Electric Wizard
-------------------------------------------------------------------------------
Tabbed by: Lawrence Hill
Email: Lawrence-hill@hotmail.co.uk

This is just a basic tab, not included any solos (sorry :/ )
Heavily Distorted, and preferably played through a bass amp.
If you listen to the song its easy to pick out rhythms and 
what part goes where. I tabbed this from memory, so it might be 
slightly off. To get it to sound just right, play around with 
vibrato on different key notes and sliding into riffs. 
As i said, this is basic ;)

Tuning: C F A# D# G c



 ^  Bend
 /  slide up
 \  slide down
 h  hammer-on
 p  pull-off
 ~  vibrato
 +  harmonic
 x  Mute note


Part 1:

	Intro:
    
 c|------|--------------------------------------------------------------------|
 G|------|--------------------------------------------------------------------|
D#|------|--------------------------------------------------------------------|
A#|--2---|--------------------------------------------------------------------|
 F|--2---|--------------------------------------------------------------------|
 C|--0---|--0-0-0-0-0-0-0-0-0-0-0-0-0-0-0-6^--0-0-0-0-0-0-0-0-0-0-0-0-0-7-6-3-|

	Interlude:

 c|---------------------------------------------------------------------------|
 G|----------12\----------------------------12\-------------------------------|
D#|----------12\----------------------------12\-------------------------------|
A#|------------------7^--7-5-5--7^-----------------------------5h6p5h6p5h6p5--|
 F|--5-7-7-5-----5-7----------------5-7-7-5------5-7--------------------------|
 C|--------------------------------------------------7-6-5-5-7----------------|


 c|--------------------------------|------------------------------------------|
 G|--------------------------------|----(This may be an octave higher)--------|
D#|--------------------------------|------------------------------------------|
A#|--------------------------/7-5~-|--------------5~--------------------------|
 F|------7-5-----7-5-----5-7-------|----7-5---5-7------7-5--------------------|
 C|--0-0-----0-0-----0-0-----------|--0-----7--------0-----7-6-5-3~-----------|


Part 2:


 c|---------------------------|-------------------|---------------------------|
 G|---------------------------|-------------------|---------------------------|
D#|---------------------------|-------------------|---------------------------|
A#|------9-----8-----7-----5--|----9---8---7---5--|---------------------------|
 F|------7-----6-----5-----3--|----7---6---5---3--|---------------------------|
 C|--0-0---0-0---0-0---0-0----|--0---0---0---0----|---------------------------|


 c|---------------------------------------------|-----------------------------|
 G|---------------------------------------------|-----------------------------|
D#|--------all palm muted-----------------------|-----------------------------|
A#|---------------------------------------------|-----------------------------|
 F|--14-14-14---13-13-13---12-12-12---10-10-10--|--14~------------------------|
 C|--12-12-12---11-11-11---10-10-10---8--8--8---|--12~------------------------|


Part 3: (mainly solos, but there is a rhythm guitar part 
        that goes with the bassline, play around with it 
        and it sounds pretty cool.)

 c|----------------------|----------------------------------------------------|
 G|----------------------|----------------------------------------------------|
D#|----------------------|----------------------------------------------------|
A#|----------------------|----------------------------------------------------|
 F|----------------------|--2---/12---5---7---8-------------------------------|
 C|--0--/10---3---5---6--|--0---/10---3---5---6-------------------------------|

	

Fade out and you can add a wah pedal by slowly depressing and releasing

 c|---------------------------------------------------------------------------|
 G|---------------------------------------------------------------------------|
D#|---------------------------------------------------------------------------|
A#|---------------------------------------------------------------------------|
 F|--2-2-2-2--12-12-12-12--5-5-5-5--7-7-8-8-----------------------------------|
 C|--0-0-0-0--10-10-10-10--3-3-3-3--5-5-6-6-----------------------------------|

I hope that helped some people :)

===============================================================================
Suggest correction
comments
print report bad tab
5 comments total. Showing first comments.
+1 reply
mattman2013 30 Jan 10, 2009 01:43 PM

dude this is an amazing tab thanks!
its sounds a little to high though, i tuned lower and it sounds right on with the song

0 reply
Ozloz 111 Jan 10, 2009 05:32 PM

yeah thats probably right, ive heard (and from what ive seen) Electric Wizard play their live stuff tuned a bit higher, i guess this was recorded tuned lower. Glad you like that tab =]

+2 reply
Leonheart 30 Jun 26, 2009 11:09 PM

Maaan. Needs that jazz solo.

guest
You may want to rate the tab now too:
select rating
Wanna post a correction for this tab? Suggest correction