Oops, an error
Loading. Please wait.

Funeralopolis Tab

version 1
version 1

Whole song

Interactive

34,377 views 75 this week
7 commentsread comments
1 2 3 4 5
x 13
add to favorites
launch autoscroll
font size
0
reset
how to read this tab
guitar tuner
Autoscroll
slow
fast
+/-
esc
set tempo
stop
Help us to improve Ultimate-Guitar.com Take our survey!
×
Author
Difficulty
intermediate
e|------------------------------------------------------------|
B|------------------------------------------------------------|
G|------------------------------------------------------------|
D|------------------------------------------------------------|
A|------------------------------------------------------------|
E|--/7----7--7-5h7-7-7----7-5h7-7-7p5-5---3----0-2-0---0--1---|

e|------------------------------------------------------------|
B|------------------------------------------------------------|
G|------------------------------------------------------------|
D|------------------------------------------------------------|
A|------------------------------------------------------------|
E|-1-2--3--1---/7----7--7-5h7-7-7----7-5h7-7-7p5-5---3--0h2p0-|

e|------------------------------------------------------------|
B|------------------------------------------------------------|
G|------------------------------------------------------------|
D|------------------------------------------------------------|
A|------------------------------------------------------------|
E|-2-0--0-1---1b(slight bend)---/7----7--7-5h7-7-7----7-5h7---|

e|------------------------------------------------------------|
B|------------------------------------------------------------|
G|------------------------------------------------------------|
D|------------------------------------------------------------|
A|---------------------------------------------------------5--|
E|-7-7-7p5-5-3-2b---2--0-2-----/7----7--7-5h7-7-7--7-5h6h7----|

e|----------------------------------------------------------------|
B|----------------------------------------------------------------|
G|----------------------------------------------------------------|
D|----------------------------------------------------------------|
A|--7--7p5---0----------------------------------------------------|
E|--------------3--3-3-0--2-2--2--1h2p0----/7----7--7---13h14h15--|

e|-------------------------------------------------------------|
B|-------------------------------------------------------------|
G|-------------------------------------------------------------|
D|-------------------------------------------------------------|
A|--------------------------------------12h14h15--15-15b-------|
E|-15--14b--15-13-----13-13h15--13/14b-------------------------|

e|----------------------------------------------------------|
B|----------------------------------------------------------|
G|----------------------------------------------------------|
D|----------------------------------------------------------|
A|-12h14h15--17-17b--15-12-13-15-12-14-15-12-14---16b-14----|
E|----------------------------------------------------------|

e|----------------------------------------------------------|
B|----------------------------------------------------------|
G|----------------------------------------------------------|
D|----------------------------------------------------------|
A|-11--12p11p10-11-9--9p7-7\5-------------------------------|
E|-----------------------------4---5-6---6h7p6h7p7h7p7h7p7--|
                              .   . .

e|----------------------------------------------------------|
B|----------------------------------------------------------|
G|----------------------------------------------------------|
D|----------------------------------------------------------|
A|----------------------------------------------------------|
E|-/7----7-7--5h7-7-7--7-5h7-7-7p5-5--3--------1-2---2b-----|

e|----------------------------------------------------------|
B|----------------------------------------------------------|
G|----------------------------------------------------------|
D|----------------------------------------------------------|
A|----------------------------------------------------------|
E|-/7----7-7--5h7-7-7--7-5h7-7-7p5-5-3----3-3--2-3-2-4-3-5--|

e|---------|
B|---------|
G|---------|
D|---------|
A|---------|
E|-3-6-3---|

(4x)
e|--------------------------------------------|
B|--------------------------------------------|
G|--------------------------------------------|
D|--------------------------------------------|
A|--/3--3-3--2h3-3-3--3-2h3-3-3p2-2--1------0-|
E|--/3--3-3--2h3-3-3--3-2h3-3-3p2-2--1------0-|

(4x)
e|----------------------------------------------------------|
B|----------------------------------------------------------|
G|----------------------------------------------------------|
D|----------------------------------------------------------|
A|--3--4-2---3--4-2---3--4-2--2/3-3-3--3-2/3--5b------------|
E|--3--4-2---3--4-2---3--4-2--2/3-3-3--3-2/3--4b------------|

(4x)
e|--------------------------------------------|
B|--------------------------------------------|
G|--------------------------------------------|
D|--------------------------------------------|
A|--/3--3-3--2h3-3-3--3-2h3-3-3p2-2--1------0-|
E|--/3--3-3--2h3-3-3--3-2h3-3-3p2-2--1------0-|

(4x)
e|----------------------------------------------------------|
B|----------------------------------------------------------|
G|----------------------------------------------------------|
D|----------------------------------------------------------|
A|--3--4-2---3--4-2---3--4-2--2/3-3-3--3-2/3--5b------------|
E|--3--4-2---3--4-2---3--4-2--2/3-3-3--3-2/3--4b------------|

(2x)
e|----------------------------------------------------------|
B|----------------------------------------------------------|
G|----------------------------------------------------------|
D|----------------------------------------------------------|
A|--3--4-2---3--3-2---3--4-2--2/3-3-3--3-2/3--6b------------|
E|--3--3-2---3--4-2---3--3-2--2/3-3-3--3-2/3--5b------------|

e|--------------|
B|--------------|
G|--------------|
D|--------------|
A|--1--------5b-|
E|--1--------4b-|

(6x)
e|----------------------------------|
B|----------------------------------|
G|----------------------------------|
D|----------------------------------|
A|-3-3-3-3-3-6-5--3-3-6-5--3-3-3-4--|
E|-3-3-3-3-3-6-5--3-3-6-5--3-3-3-4--|

(4x)
e|---------------------------|
B|---------------------------|
G|---------------------------|
D|---------------------------|
A|--5b-5b-5b--3-3-5--3-3-4---|
E|--4b-4b-4b--3-3-5--3-3-4---|

(5x)
e|----------------------------------------------------------|
B|----------------------------------------------------------|
G|----------------------------------------------------------|
D|----------------------------------------------------------|
A|-3-3-3-3-3-6-5--3-3-6-5--3-3-3-4--------------------------|
E|-3-3-3-3-3-6-5--3-3-6-5--3-3-3-4--------------------------|

(3x)
e|----------------------------------------------------------|
B|----------------------------------------------------------|
G|----------------------------------------------------------|
D|----------------------------------------------------------|
A|-3-3-3-3-3-6-5--3-3-6-5--3-3-3-4--------------------------|
E|-3-3-3-3-3-6-5--3-3-6-5--3-3-3-4--------------------------|
      . . .

(4x)
e|----------------------------|
B|----------------------------|
G|----------------------------|
D|----------------------------|
A|--5b-5b-5b--3-3-5--3-3-4----|
E|--4b-4b-4b--3-3-5--3-3-4----|

(4x)
e|-----------------------------------------------------|
B|-----------------------------------------------------|
G|-----------------------------------------------------|
D|-----------------------------------------------------|
A|-3-3-3-3-3-5b--3-3-5--3-3-4--------------------------|
E|-3-3-3-3-3-4b--3-3-5--3-3-4--------------------------|

(4x)
e|----------------------------------------------------------|
B|----------------------------------------------------------|
G|----------------------------------------------------------|
D|----------------------------------------------------------|
A|-3-3-3-3-6-5--3-3-6-5--3-3-3-4----------------------------|
E|-3-3-3-3-6-5--3-3-6-5--3-3-3-4----------------------------|

(Play until song ends)
e|----------------------------------------------------------|
B|----------------------------------------------------------|
G|----------------------------------------------------------|
D|----------------------------------------------------------|
A|-3-3-3-3-3-6-5--3-3-6-5--3-3-3-4--------------------------|
E|-3-3-3-3-3-6-5--3-3-6-5--3-3-3-4--------------------------|


************************************

| h  Hammer-on
| p  Pull-off
| /  Slide up
| b  Bend
| \  Slide down
| .  Staccato
| b(slight bend) 

************************************
Suggest correction
comments
print report bad tab
7 comments total. Showing first comments.
+1 reply
charming 10 Feb 13, 2007 09:44 AM

intro is wrong.

if the first line of the tab is wrong, cant trust the rest...

+1 reply
DehumanizeR 226 Feb 27, 2007 11:50 AM

this is competly off, and your're not even sure on the tuning?

-1 reply
EyePlayElectric 102 Mar 07, 2007 06:52 PM

I beg to differ. This is the most accurate tab out for this song now as of 3/7/07 and before. I'm not full of myself or some pro guitarist. But no one has played this song day in and out more than me and I've tried the other versions. They don't match. I'm sure on the tuning, I just don't want to hear people say "Oh but electric wizard doesn't play in standard!" which is true at times and false. Whatever tune works, go for it. I used standard. It's all on about three strings anyway.

And pig, 5-2.

guest
You may want to rate the tab now too:
select rating
Wanna post a correction for this tab? Suggest correction