Oops, an error
Loading. Please wait.

Satanic Rites Of Drugula Tab

version 2
version 2

Whole song

Interactive

8,581 views 18 this week
no commentswrite comment
1 2 3 4 5
excellent!
x 4
add to favorites
launch autoscroll
font size
0
reset
how to read this tab
guitar tuner
Tab Pro tools
  • play this tab
  • loop segment
  • change instrument
  • show fretboard
  • metronome
×
Best way to learn
"Satanic Rites Of Drugula"
Autoscroll
slow
fast
+/-
esc
set tempo
stop
Contributor
Difficulty
Tuning
novice
B F# B E G# C#
                            SATANIC RITES OF DRUGULA
                         As recorded by Electric Wizard
                      (From the 2007 Album WITCHCULT TODAY)

Transcribed by corey hunter www.youtube.com/twinofcocteau 
                            ** video lesson available ***



   Tune Guitar DOWN Low - High (B F# B E G# C#) 

   Intro Riff
   Tempo =58bpm
    C#5          A5                   G#5          D5
   4/4
    Gtr I
     Q  E. S +S  S E S      +S  +E     Q  E. S +S  S E S      +S  +E
||----------------------------------|----------------------------------||
||o---------------------------------|---------------------------------o||
||----------------------------------|----------------------------------||
||--/9--9--9-(9)-5-5-5b5.5==(5)r(5)-|----------------------------------||
||o-/7--7--7-(7)-3-3-3b3.5==(3)r(3)-|-/7--7--7-(7)-3-3-3b3.5==(3)r(3)-o||
||----------------------------------|-/7--7--7-(7)-3-3-3b3.5==(3)r(3)--||


   Solo Melody Line (used in the Intro)
                                           ~~
    E  S  S  S  S  S  S  S  S  S  S  S  S  E
||--------------------------------------------||
||o------------------------------------------o||
||--------------------------------------------||
||----------------------------------------14--||
||o---14p12-14p12-14p12-14p12-14p12-14p12----o||
||--------------------------------------------||


   Verse
    S S +E  E. S S S E S S E    Q  E. S S S E S S E
||---------------------------|-----------------------||
||o--------------------------|----------------------o||
||---------------------------|-----------------------||
||---------------------------|-----------------------||
||o--------------------------|----------------------o||
||--0-2-(2)-2--2-0h2-2-0h2-2-|-/5--5--5-5p4-4-4h5-5--||


 Chorus
  C#5   C5A5   C5
   Q  E E Q  E E   Q  E E Q  E E   Q  E E Q  E E   Q  E E Q  E E
|----------------|---------------|---------------|---------------||
|----------------|---------------|---------------|---------------||
|----------------|---------------|---------------|---------------||
|-/9--9-8-5--5-8-|-9--9-8-5--5-8-|-9--9-8-5--5-8-|-9--9-8-5--5-8-||
|-/7--7-6-3--3-6-|-7--7-6-3--3-6-|-7--7-6-3--3-6-|-7--7-6-3--3-6-||
|----------------|---------------|---------------|---------------||



comments
print report bad tab
I want to post or [tab]
guest
You may want to rate the tab now too:
select rating
Please do not post tabs as comments. Select "correction" instead!