Oops, an error
Loading. Please wait.

Saturnine Tab

version 1
version 1

Whole song

2,398 views 3 this week
no commentswrite comment
1 2 3 4 5
worth learning
x 4
add to favorites
launch autoscroll
font size
0
reset
how to read this tab
guitar tuner
Tab Pro tools
  • play this tab
  • loop segment
  • change instrument
  • show fretboard
  • metronome
×
Best way to learn
"Saturnine"
Autoscroll
slow
fast
+/-
esc
set tempo
stop
Contributor
Difficulty
Let Electric Wizard play in whatever tuning they want, they own, but I use standard and
I can get their sound from that tuning then so be it. This is standard tuning, if it
work for you (I'm 100% it should) then work on your amp.


---------------------------
Electric Wizard - Saturnine
Guitar Tab
Standard Tuning
Album, Witchcult Today
Song Length 10:24
---------------------------


-------------
Saturnine TAB
-------------


Play this part slightly palm muted. Yes do a little sliding when going from 11 to 2 to
not enough to hear a strong slide though.
|------------------------------------------------------------|
|------------------------------------------------------------|
|------------------------------------------------------------|Play 2x
|------------------------------------------------------------|
|------------------------------------------------------------|
|--0-11~-/-2-\-11~--0-11~-11-9h11~--9h11~--------------------|
   . .     .   .    .  .   .  . .    . .

Here is when you lay off the palm muting (Maybe still a bit if you hear the song out,
not much for sure. The goal is to get the same above notes louder.)
|------------------------------------------------------------|
|------------------------------------------------------------|
|------------------------------------------------------------|Play 2x
|------------------------------------------------------------|
|------------------------------------------------------------|
|--0-11~-/-2-\-11~--0-11~-11-9h11~--9h11~--------------------|
   .       .        .

Don't let go of the bends^ you do here, from the first bend "11b" to "11p9" don't let it go.
|------------------------------------------------------------|
|------------------------------------------------------------|
|------------------------------------------------------------|
|------------------------------------------------------------|
|-------------------------------------9h11-11b^^11^11p9------|
|--9h11-11-11~-11-9h11-11-11~-11-9h11------------------------|
               .

Don't let go of the bends^ you do here either,same as above, from the first bend "15b"
"15p13" don't let it go.
-----------------------------------------------------------------------|
-----------------------------------------------------------------------|
-----------------------------------------------------------------------|
--------------------------------------------------13h15-15b^^15^15p13--|
------------13h15-15-15~-15-13h15-15-15~-15-13h15----------------------|
--11p9-11~---------------.---------------------------------------------|

------------|
------------|
------------|
------------|
------------|
--15h13-15~-| Weird part here, hard to tab so I think this is a good sub.


------
Chorus
------
Mute, Mute, Mute. If it doesn't sound right, not heavy enough, use the next string up +
string. Get the timing right, that's important here and with all of EW especially.
--------------------------|
--------------------------|
--------------------------|
--------------------------|
--------------------------|
--0-0-0-0-01p0-1-00-0-0---|
  . . . . .. . . .. . .

--End--


That's pretty much the whole song. Use what you need when you need it that's
all I can say for the rest. The ending before the chorus is weird because it isn't the
same way Electric Wizard does it but they do it in a way I can't tab so you guys should
fine with my substitute, it also changes later on in the song but those shouldn't be 
to come up with yourself. No joke.

Tablature Legend
----------------

 /(up) or  \(down)  - Slide down to or up to (from/to "nowhere")
    .     - Slightly palm mute
    ^     - Keep the bended note played bended till appropriate
    b     - Bend
    h     - Hammer on
    p     - Pull off
comments
print report bad tab
I want to post or [tab]
guest
You may want to rate the tab now too:
select rating
Please do not post tabs as comments. Select "correction" instead!