Oops, an error
Loading. Please wait.

Saturns Children Tab

2,622 views 21 this week
no commentswrite comment
1 2 3 4 5
excellent!
x 2
add to favorites
launch autoscroll
font size
0
reset
how to read this tab
guitar tuner
Tab Pro tools
  • play this tab
  • loop segment
  • change instrument
  • show fretboard
  • metronome
Autoscroll
slow
fast
+/-
esc
set tempo
stop
Contributor
Tuning
C F A# D# G C
Saturn's Children
Electric Wizard
We Live
Tuning: C Standard C F A# D# G C
this song will take a while to play. take your time, become lost, enter a trance, listen 
the interval between the A# and the F#... this melody is the harbinger of the apocalypse:

||---------------------------||
||---------------------------||
||----9-----9--7--9--7-------||
||----9-----9--7--9--7--8----||
||----7-----7--5--7--5--8----||
||----------------------6----|| x24? after 18 or so:
Crucified by the sun...
In the shadow of the iron cross
Saturn's Children come...
Invoke the Supercoven...
(3 riffs)
Many armed we strike
Like wolves in the night...
|-----||---------------------||
|-----||---------------------||
|--9--||----9--7--9--7--9----||
|--9--||----9--7--9--7--9----||
|--7--||----7--5--7--5--7----||x3
|-----||---------------------||
And cross turns to black...
to black...
to black.....
|---------------------------------||---------------------------------|
|---------------------------------||---------------------------------|
|--9------9------9-9-9-9-9-9-9----||--9------9-----------------------|
|--9------9------9-9-9-9-9-9-9----||----9------9----10---------5-5-5-|
|--7------7------7-7-7-7-7-7-7----||------10-----10-10---(10)//5-5-5-|
|----------------------0-0-0------||-----------------8----(8)//3-3-3-|
              x4
||------------||--------------------||
||------------||--------------------||
||----9--999--||-5-5-5-5-5-5-555----||
||-2--9--999--||-5-5-5-5-5-5-555555-||
||-2--7--777--||-3-3-3-3-3-3-333555-||x2 then solo:
||-0--0--000--||----------------333-||

			      x4 				     x4
|-----------------------------||-------------------------------------||
|-12--12-12--12-10---10-8---8-||-12--12-12--12-13-13-13/15-15-15-----||
|---12-----12------9------9---||---12-----12-------------------------||
|-----------------------------||-------------------------------------||
|-----------------------------||-------------------------------------||
|-----------------------------||-------------------------------------||
|beneath solo:
|-----------------------------x2--------------------|
|-----------------------------||--------------------|
|-----9-9-99--------9-9-99----||-5-5-5-5-5-5-555----|
|-----9-9-99-2--2---9-9-99----||-5-5-5-5-5-5-555555-|
|-2---7-7-77-2--2---7-7-77----||-3-3-3-3-3-3-333555-|x2 with solo
|-0-(0)------0--0-------------||----------------333-|x1 with verse:
They're the children of the sun|	 Give up the fight,
Know that their time has come  |		slip back into the night...

|-----------------------------x2--------------------|---------------||
|-----------------------------||--------------------|---------------||
|-----9-9-99--------9-9-99----||-5------------------|---------------||
|-----9-9-99-2--2---9-9-99----||-5------------------|----555-2------||
|-2---7-7-77-2--2---7-7-77----||-3------------------|----555-2------||
|-0-(0)------0--0-------------||--------------------|----333-0------||
				Turn off your mind, there's nothing to find
				There's nothing to find, find out here...

                             |----------------------------------------|
                             |----------------------------------------|
Bass:                      x2|--12-14b-12-14b-12-14h15p14-12----------|
|----------------------------|----------------------------------------|
|----------------------------|--2-----------------5-5-5----2----------|
|---7-7--7-7--7-7--7-10-7--5-|--2-----------------5-5-5----2----------|
|--0-0--0-0--0-0--0-0--------|--0-----------------3-3-3----0----------|

              x4
||------------------||----------------------||
||------------------||----------------------||
||-----9------999---||---5-5-5-5-5-5-555----||
||--2--9-222--999---||---5-5-5-5-5-5-555555-||
||--2--7-222--777---||---3-3-3-3-3-3-333555-|| x6
||--0--0-000--000---||------------------333-||  with soloing
Saturn's Children... | Lucifer's Children...  two more verses
Saturn's Children... | Lucifer's Children...

Guitar solo
Bass solo
Wah Guitar solo

||------------------||----------------------||
||------------------||----------------------||
||-----9------999---||---5-5-5-5-5-5-555----||
||--2--9-222--999---||---5-5-5-5-5-5-555555-||
||--2--7-222--777---||---3-3-3-3-3-3-333555-|| x3 with improv
||--0--0-000--000---||------------------333-||
end with
|--------------------|
|--------------------|
|-5-5-5--------------|
|-5-5-5-5-5-5-2------|
|-3-3-3-5-5-5-2------|
|-------3-3-3-0------|
comments
We did not receive enough feedback on this tab! Please rate:
print report bad tab
1 2 3 4 5
I want to post or [tab]
guest
You may want to rate the tab now too:
select rating
Please do not post tabs as comments. Select "correction" instead!