Oops, an error
Loading. Please wait.

Solarian 13 Bass Tab

3,034 views 9 this week
1 commentread comment
1 2 3 4 5
3 more votes to show rating
add to favorites
launch autoscroll
font size
0
reset
guitar tuner
Autoscroll
slow
fast
+/-
esc
set tempo
stop
Help us to improve Ultimate-Guitar.com Take our survey!
×
Author
Difficulty
Tuning
novice
D G C F A D
-------------------------------------------------------------------------------
			                          Electric Wizard - Solarian 13
-------------------------------------------------------------------------------


Tuning: drop D

G|---------------------------------------------------------------------------|
D|-----------------5-/-7--5--7------------------5-/-7--5--7------------------|
A|-----0----0-----------------------0----0-----------------------------------|
E|---------------------------------------------------------------------------|

G|---------------------------------------------------------------------------|
D|-----------------5-/-7--5--7-----------------------------------------------|
A|-----0----0-----------------------7----6--7----6---------------------------|
E|---------------------------------------------------------------------------|
Suggest correction
Give kudos to tab author, rate the tab!
1 2 3 4 5
comments
print report bad tab
1 comment total.
0 reply
fumb duck 60 Apr 09, 2010 03:12 AM

it sounds a lot better on the E and A strings rather then the A and D. good job on the tab but.

guest
You may want to rate the tab now too:
select rating
Wanna post a correction for this tab? Suggest correction