Oops, an error
Loading. Please wait.

The Chosen Few Bass Tab

4,950 views 24 this week
no commentswrite comment
1 2 3 4 5
excellent!
x 2
add to favorites
launch autoscroll
font size
0
reset
guitar tuner
Tab Pro tools
  • play this tab
  • loop segment
  • change instrument
  • show fretboard
  • metronome
Autoscroll
slow
fast
+/-
esc
set tempo
stop
Contributor
Difficulty
intermediate
-------------------------------------------------------------------------
			     THE CHOSEN FEW - Electric Wizard
-------------------------------------------------------------------------

Album: Withcult Today

Electric Wizard, stoner/doom from the UK

Tabbed by: miauwmjam@gmail.com 

Tuning: EADG

Main riff, without vocals
G|----------------------------|
D|-------------344-443434343--|
A|-2-2-22455-55-------------5-|
E|----------------------------|

Main riff, with vocals
G|-----------------------|
D|-----------------------|
A|-2-2-22455-55--------5-|
E|-------------322-2322--|

Break at 3.18
G|--------------------------|
D|--------------------------|
A|-22-2210-210--------------|
E|--------------33-3320-320-|

Break at 4.18
G|-----------------|
D|-----------------|
A|-22------------2-|
E|----55-33-00-02--|

| /  slide up
| \  slide down
| h  hammer-on
| p  pull-off
| ~  vibrato
| +  harmonic
| x  Mute note
========================================================================
comments
We did not receive enough feedback on this tab! Please rate:
print report bad tab
1 2 3 4 5
I want to post or [tab]
guest
You may want to rate the tab now too:
select rating
Please do not post tabs as comments. Select "correction" instead!