Oops, an error
Loading. Please wait.

The Chosen Few Tab

version 3
version 3

Whole song

1,622 views 3 this week
1 commentread comment
1 2 3 4 5
please rate
add to favorites
launch autoscroll
font size
0
reset
how to read this tab
guitar tuner
Autoscroll
slow
fast
+/-
esc
set tempo
stop
Help us to improve Ultimate-Guitar.com Take our survey!
×
Author
Difficulty
Tuning
novice
B E A D F# B
-----------------------------------------------------------------------------
THE CHOSEN FEW - Electric Wizard
-----------------------------------------------------------------------------   

Tabbed by: uberfish86
Email:simon_peall@yahoo.com
Album: Witchcult Today
Tempo = 56

Legend

s - slide
b = bend

Apologies first. I had to list this as whole song because it doesn't fit into
any other category. It is the main riffs of the song, no lead parts, but is
all you need to play the rhythm guitar parts for the song.

This is my first attempt at tabbing a song by ear so please don't be too critical. 
There is a shocking lack of Electric Wizard tabs on here 
(although the ones that do exist are of very high quality) 
so I thought I would try to rectify this. If this tab gets a good response
I will try and tab some more and tab the lead parts for this song.

*Note*
There is another tab on here that is labelled as The Chosen Few, 
I suspect that it is actually a tab of A Chosen Few based on the tab 
and the description of it being a song from Let Us Prey rather than 
Witchcult Today.
When I get around to it I will see if I can get that changed too.

This tab is by no means definitive, these are just the riffs I 
managed to tab out. They are in the order they appear in the song but 
this isnt the whole song tabbed out, you will need to work out the 
timings and the number of repeats yourself. I tabbed this with GP6 
and exported it to ASCII but if anyone would like the GPX file 
I would be happy to upload that as well.

Tuning: B standard (BEADF#B)


Intro riff (played with one guitar a couple of times)
B ||---------------------------------------------------|
F#||---------------------------------------------------|
D ||o--------------------------------------------------|
A ||o--------------------------------------------------|
E ||---------------------------------------------------|
B ||-12----------12-------12-12s15-15----15-------15---|


----------------------------------------------------|
----------------------------------------------------|
----------------------------------------------------|
----------------------------------------------------|
----------------------------------------------------|
--15s19-19----19-------19-19-18-19-18-19-18-15------|


Rhythm riff (played with the intro riff by the second guitar then both)
---------------------------------------------------|
---------------------------------------------------|
o--------------------------------------------------|
o--------------------------------------------------|
-14----------14-------14-14s17-17----17-------17---|
-12----------12-------12-12s15-15----15-------15---|


----------------------------------------------------|
----------------------------------------------------|
----------------------------------------------------|
----------------------------------------------------|
--17s9--9-----9--------9--9s-5--5-----5b----5-------|
--15s7--7-----7--------7--7s-3--3-----3b----3-------|



Riff 2 (played about halfway through after a solo I think)
----------------------------------------------------|
----------------------------------------------------|
----------------------------------------------------|
----------------------------------------------------|
--14----------14-------14-14-13-12----14-13-12------|
--12----------12-------12-12-11-10----12-11-10------|


----------------------------------------------------|
----------------------------------------------------|
----------------------------------------------------|
----------------------------------------------------|
--10----------10-------10-10-7--7-----7b----7-------|
--8-----------8--------8--8s-5--5-----5b----5-------|



Riff 3 (this is played until the end of the song, I am not 100%
sure about the end of it)

---------------------------|----------------------------|
---------------------------|----------------------------|
o--------------------------|----------------------------|
o--------------------------|----------------------------|
-15-14---------------------|--14-12---------------------|
-13-12---------------------|--12-10---------------------|


----------------------------|
----------------------------|
----------------------------|
----------------------------|
--12-10---------------------|
--10-8----------------------|


---------------------------------------------------||----||
---------------------------------------------------||----||
--------------------------------------------------o||----||
--------------------------------------------------o||----||
--10----7-----------7--------7--7--------7--7------||----||
--8-----5-----------5--------5--5--------5--5------||----||

I hope this is of some use to someone.
Thanks :)
PS: If any part of the formatting of this tab submission is wrong I apologise its my first go.
Suggest correction
What's this?
You can suggest a correction to this tab. Community and Mods will review your correction and vote to approve or reject it.
comments
We did not receive enough feedback on this tab! Please rate:
print report bad tab
1 2 3 4 5
1 comment total.
0 reply
shovelpusher 11 wrote on July 1 2015, 01:11 pm

Great tab, better than the others. Actually looks like what they play live. Please add the solos!

guest
You may want to rate the tab now too:
select rating
Please do not post tabs as comments. Select "correction" instead!