Oops, an error
Loading. Please wait.

The Living Dead At Manchester Morgue Tab

1,300 views 1 this week
no commentswrite comment
1 2 3 4 5
3 more votes to show rating
add to favorites
launch autoscroll
font size
0
reset
how to read this tab
guitar tuner
Autoscroll
slow
fast
+/-
esc
set tempo
stop
Help us to improve Ultimate-Guitar.com Take our survey!
×
Author
DROP D TUNING (CGCFAD)


Main Opening Riff:

D||---5------8------5----|--5--8----8--7----6------||---5------8------11----|
A||----------8-----------|-----8----8--7----6------||-----------------------|
F||*---------------------|-----------------------*-||*----------------------|
C||*---------------------|-----------------------*-||*----------------------|
G||----------------------|-------------------------||-----------------------|
C||----------------------|-------------------------||-----------------------|


----11--11--11--11--11--12\------|
---------------------------------|
-------------------------------*-|
-------------------------------*-|
---------------------------------|
---------------------------------|

Verse riff:

|----------------------|------------------------||
|----------------------|------------------------||
|*---------------------|----------------------*-||
|*--0------3------0----|--L--3------2----1----*-||
|---0------3------0----|--L--3------2----1------||
|---0------3------0----|--L--3------2----1------||

Chorus:                                      Post-Chorus Solo:
----------------------|--------------------||----------------------------|
----------------------|--------------------||---8--------8--------8------|
*---------------------|------------------*-||*--7--------7--------7------|
*--0------3------6----|------------------*-||*---------------------------|
---0------3------6----|--------------------||----------------------------|
---0------3------6----|--------------------||----------------------------|


                            x3
---------------------------||----------------------|-------------------------|
----8------8--6--8---6-----||--3------3----3--1----|-----8----6--8--9--8--6--|
----7------7-------------*-||--2--------------0----|-----7----7-----------7--|
-------------------------*-||----------------------|-------------------------|
---------------------------||----------------------|-------------------------|
---------------------------||----------------------|-------------------------|

Bridge Rhythm (there is a long solo here that I didn't bother tabbing out. I think it's 
a C blues scale, though):

---------------------|---------------------|---------------------|
---------------------|---------------------|---------------------|
---------------------|---------------------|---------------------|
---------------------|---------------------|---------------------|
---------------------|---------------------|---------------------|
--0------0------0----|--0------0------0----|--3------3------3----|


----------------------|-------------------|-------------------|
----------------------|-------------------|-------------------|
----------------------|-------------------|-------------------|
----------------------|-------------------|-------------------|
----------------------|-------------------|-------------------|
--7------7------7\----|--0----------------|--0----------------|


-------------------|-------------------||
-------------------|-------------------||
-------------------|-------------------||
-------------------|-------------------||
-------------------|-------------------||
--3----------------|--7----------------||
Suggest correction
Give kudos to tab author, rate the tab!
1 2 3 4 5
comments
print report bad tab
guest
You may want to rate the tab now too:
select rating
Wanna post a correction for this tab? Suggest correction