Oops, an error
Loading. Please wait.

Venus In Furs Tab

3,608 views 3 this week
no commentswrite comment
1 2 3 4 5
x 3
add to favorites
launch autoscroll
font size
0
reset
how to read this tab
guitar tuner
Autoscroll
slow
fast
+/-
esc
set tempo
stop
Help us to improve Ultimate-Guitar.com Take our survey!
×
Author
Difficulty
Tuning
novice
B E A D F# B
-----------------------------------------------------------------------------------
Song: Venus in Furs
Band: Electric Wizard
Album: Black Masses
Tabbed by: TrollFaceJesus
E-mail: trollfacejesus@gmail.com


Hey everyone, this is my tab for this song, and I think it sounds pretty awesome.
All of the rhythm sections in the song are here, but I didn't tab out the solos.
Hopefully everything in here is accurate, and you guys find this tab to be helpful!
If you have any comments, questions or corrections to point out, please feel free
to leave a message here, or to send me an email! :D



Tuning: B-Standard



Intro: (0:08)
=============

Riff 1
 1 e + a 2 e + a 3 e + a 4 e + a  1 e + a 2 e + a 3 e + a 4 e + a
|-------------------------------||-------------------------------|
|-------------------------------||-------------------------------|
|--------4----------------------||-------------------------------| x2
|------------------------3------||-------------------------------|
|2---2-----------2---2----------||2---2---4tr5-------------------|
|-------------------------------||-------------------------------|




Riff 2a
 1 e + a 2 e + a 3 e + a 4 e + a  1 e + a 2 e + a 3 e + a 4 e + a
|-------------------------------||-------------------------------|
|-------------------------------||-------------------------------|
|-------------------------------||----------------2h4-4---2h4-4--| x4
|4-------4----------------------||-------------------------------|
|2-------2-------5-------5------||4-------4----------------------|
|------------0-0-3-------3---0-0||2-------2---0-0----------------|
             . .             . .              . .




Verse I (0:40)
==============

Riff 2b
 1 e + a 2 e + a 3 e + a 4 e + a  1 e + a 2 e + a 3 e + a 4 e + a
|-------------------------------||-------------------------------|
|-------------------------------||-------------------------------|
|-------------------------------||-------------------------------| x4
|4-------4----------------------||-------------------------------|
|2-------2-------5-------5------||4-------4-------0h2-2---0h2-2--|
|------------0-0-3-------3---0-0||2-------2---0-0----------------|
             . .             . .              . .




Chorus I (1:00)
===============

Riff 1 x 2




Verse II (1:11)
===============

Riff 2b x 4




Chorus II (1:31)
================

Riff 1 x 2




Solo (1:41)
===========

Starting from this point, the lead guitar basically just solos throughout the rest of the song. All of the
rhythm sections played throughout the rest of the song are tabbed below:




Riff 2a x 3 (Rhythm)




Riff 2c (Rhythm)
 1 e + a 2 e + a 3 e + a 4 e + a  1 e + a 2 e + a 3 e + a 4 e + a
|-------------------------------||-------------------------------|
|-------------------------------||-------------------------------|
|-------------------------------||-------------------------------| x1
|4-------4----------------------||-------------------------------|
|2-------2-------5-------5------||4-------4-------0---0---0---0--|
|------------0-0-3-------3---0-0||2-------2---0-0----------------|
             . .             . .              . .




Riff 3 (Rhythm)
 1 e + a 2 e + a 3 e + a 4 e + a  1 e + a 2 e + a 3 e + a 4 e + a
|-------------------------------||-------------------------------|
|-------------------------------||-------------------------------|
|--------4---------------2------||--------2---4---2h4-4---2h4-4--| x4
|------------4---0---0-------2--||-------------------------------|
|2---2--------------------------||0---0--------------------------|
|-------------------------------||-------------------------------|




Chorus III/Solo (2:22)
======================

Riff 3 x 4 (Rhythm)




Bridge/Solo (2:43)
==================

Riff 4 (Rhythm)
 1 e + a 2 e + a 3 e + a 4 e + a  1 e + a 2 e + a 3 e + a 4 e + a
|-------------------------------||-------------------------------|
|-------------------------------||-------------------------------|
|--------4---4---3---3---2---2--||0-------0-----0-0h2-2----------| x4
|-------------------------------||------------------------0h2-2--|
|2---2--------------------------||-------------------------------|
|-------------------------------||-------------------------------|




Main Riff/Solo (3:03)
=====================

Riff 1 x 2 (Rhythm)

Riff 2a x 3 (Rhythm)

Riff 2c x 1 (Rhythm)




Chorus IV/Solo/Ending (3:33)
============================

From this point on, the rhythm guitar repeats "Riff 3" until the end of the song, while the lead guitar
continues to solo. As for the vocals, the chorus is chanted at various times throughout the rest of the
song.



And that's it!



************************************

| /   slide up
| \   slide down
| h   hammer-on
| p   pull-off
| v   vibrato
|[ ]  harmonic
| •   mute note
| b   bend
| pb  pre-bend
| br  bend release
| pbr pre-bend release
| brb bend release bend

************************************
Suggest correction
Give kudos to tab author, rate the tab!
1 2 3 4 5
comments
print report bad tab
guest
You may want to rate the tab now too:
select rating
Wanna post a correction for this tab? Suggest correction