Oops, an error
Loading. Please wait.

We Hate You Bass Tab

version 1
version 1

Whole song

Interactive

4,788 views 15 this week
no commentswrite comment
1 2 3 4 5
2 more votes to show rating
add to favorites
launch autoscroll
font size
0
reset
guitar tuner
Autoscroll
slow
fast
+/-
esc
set tempo
stop
Help us to improve Ultimate-Guitar.com Take our survey!
×
Author
Difficulty
intermediate
Tuning: A# + ~25 cents

Legend:
b - bend
r - release
/ - slide up
\ - slide down

Main riff

C#|--------------------------------|
G#|-----3b---------------3b----5br-|
D#|-------------5b-----------------|
A#|-0--3----0-3-----0--3-----3-----|


C#|--------------------------------|
G#|--------------------------------|
D#|--------/13b-----------/13b-----|
A#|-5--5-5---------8--8-8----------|


Verse
A seed of hate...
C#|-----------------------------------|
G#|-----------------------------------|
D#|-----------------------------------|
A#|-5-5-5-5-5-5-5-5-1-1-1-1/10-10-10br|

Listen to the song for riff order.
Tim always improvised on adding octaves or perfect fifth's to his basslines - try it out.
At the end, when he screams "We hate you!" the song just slows donw on Verse riff, and 
you end the song on 5th fret of A# string.
Lots of feedback and scratching noise, wizard style. :)
Suggest correction
Give kudos to tab author, rate the tab!
1 2 3 4 5
comments
print report bad tab
guest
You may want to rate the tab now too:
select rating
Wanna post a correction for this tab? Suggest correction