Oops, an error
Loading. Please wait.

We The Undead Tab

version 2
version 2

Whole song

1,000 views 3 this week
no commentswrite comment
1 2 3 4 5
please rate
add to favorites
launch autoscroll
font size
0
reset
how to read this tab
guitar tuner
Autoscroll
slow
fast
+/-
esc
set tempo
stop
Help us to improve Ultimate-Guitar.com Take our survey!
×
Author
Difficulty
novice
-------------------------------------------------------------------------------
                             We, the Undead - Electric Wizard
-------------------------------------------------------------------------------
Tabbed by: DehumanizeR
Email: stivharris@hotmail.com

Tuning: C
Album: Let Us Pray...
Other: This is one of the best bands in the world. This album is not as heavy as
but it still kicks ass. I left out the solo but it's similar to riff 1 just higher and gets more
intense

Riff 1
|----------------------------------------------|
|----------------------------------------------|
|----------------------------------------------|
|-------------------------7-9-99-999---5-x-----|
|-7-9-99-999--7-9-99-999--5/7-77-777---3-x-5---|
|-5/7-77-777--5/7-77-777-------------------3---|

Riff 2
|----------------------------------------------|
|----------------------------------------------|
|----------------------------------------------|
|----------------------------------------------|
|----------5h7-7-7--3-x------------------------|
|-5h7-7-7---------------3~---------------------|

Riff3
|----------------------------------------------|
|----------------------------------------------|
|----------------------------------------------|
|------------------99-7-9--10-7-10-7-10/7--7/9-|
|-9-9-9-9-9-9-9-9----------8--5-8--5--8/5--5/7-|
|-7-7-7-7-7-7-7-7------------------------------|

Breakdown
|----------------------------------------------|
|----------------------------------------------|
|----------------------------------------------|
|----------------------------------------------|
|-8--5--8--5--8p5--5h7-------------------------|
|----------------------------------------------|


| /  slide
| h  hammer-on
| p  pull-off
| ~  vibrato
| x  Mute note
Suggest correction
Give kudos to tab author, rate the tab!
1 2 3 4 5
comments
print report bad tab
guest
You may want to rate the tab now too:
select rating
Wanna post a correction for this tab? Suggest correction