Oops, an error
Loading. Please wait.

Witchcult Today Tab

version 2
version 2

Whole song

Interactive

1,637 views 15 this week
no commentswrite comment
1 2 3 4 5
x 3
add to favorites
launch autoscroll
font size
0
reset
how to read this tab
guitar tuner
Autoscroll
slow
fast
+/-
esc
set tempo
stop
Help us to improve Ultimate-Guitar.com Take our survey!
×
Author
Difficulty
Tuning
novice
C# G# C# F# A# D#
****PLEASE READ!!**** On the record this song is in B tuning (2 and a half steps down).
THIS tab is for guitars in C# (one and a half steps down). However if your guitar is in
B, just move this tab up a whole step and you will be fine. I have tabed out both guitar 
parts. I have labeled them L for lead and R for rhythm, followed by a number. If you have
any questions or comments please email me and include in the subject line 
"questions/comment for your tab" at matt6885725@aol.com. Sorry I dont have the solo just improvise 
around the 12th fret, its not hard folks.


Lead Guitar Intro x2 (rhythm guitar is silent) L1
|---------------------------------------------------------------------------|
|---------------------------------------------------------------------------|
|---------------------------------------------------------------------------|
|-9/12--12b-12-12/7-7b--7-7-7/6-6-6b--6-6/5-5-5/3-3b------------------------|
|---------------------------------------------------------------------------|
|---------------------------------------------------------------------------|

Lead Guitar plays this twice and then plays L1 for another two times over the rhythm 
guitar. L2
|---------------------------------------------------------------------------|
|---------------------------------------------------------------------------|
|---------------------------------------------------------------------------|
|---------------------------------------------------------------------------|
|---------------------------------------------------------------------------|
|-10--10--10-10/5-5-5b--5-5/4-4-4b-4-4/3-3/1-1b-----------------------------|

Now here is the riff played by the lead guitar before the verse. Play this twice L3
|---------------------------------------------------------------------------|
|---------------------------------------------------------------------------|
|---------------------------------------------------------------------------|
|-------------------------------------10h12-12-10h12-12---------------------|
|---------8---------4----------6--------------------------------------------|
|-8/10-10--10--4/6-6--6--6/8-8---8-8----------------------------------------|

 Lead plays this part over rhythm L4
|-----------------------------------------------------------------------------|
|-----------------------------------------------------------------------------|
|-------------10------------------10-------------------10---------------------|
|-10h12-12-12---12-12-10h12-12-12----12-12-10h12-12-12----12-12-10h12-1210h12-|
|-----------------------------------------------------------------------------|
|-----------------------------------------------------------------------------|

 Lead guitar harmonizes on G string twice while rhythm plays chords to the verse. L5
|---------------------------------------------------------------------------|
|---------------------------------------------------------------------------|
|---------------------------------------------------------------------------|
|-12--12-12-10h12-12-12b--12-12/15-15-15b-15-13h15b-------------------------|
|---------------------------------------------------------------------------|
|---------------------------------------------------------------------------|

Here is the verse played by BOTH guitars.
|---------------------------------------------------------------------------|
|---------------------------------------------------------------------------|
|---------------------------------------------------------------------------|
|---------------------------------------------------------------------------|
|-12--12-12/10/12-12-12--12-12/15-15-15-15/13/15----------------------------|
|-10--10-10/8/ 10-10-10--10-10/13-13-13-13/11/13----------------------------|


Here are the parts for the rhythm guitar

Wait for lead to play intro twice then come in and play this. R1
|---------------------------------------------------------------------------|
|---------------------------------------------------------------------------|
|---------------------------------------------------------------------------|
|---------------------------------------------------------------------------|
|-12--12--12-12-7-7-7--7-7-6-6-6--6-6-5-5-3-3-------------------------------|
|-10--10--10-10/5-5-5--5-5/4-4-4-4-4/3-3/1-1--------------------------------|

R2
|---------------------------------------------------------------------------|
|---------------------------------------------------------------------------|
|---------------------------------------------------------------------------|
|---------------------------------------------------------------------------|
|---------8---------4----------6------10/12-12-10/12-12---------------------|
|-8/10-10--10--4/6-6--6--6/8-8---8-8--8/10-10--8/10-10----------------------|

After the first two verses rhythm guitar plays R2 over the solo. Then play this when jus
starts to sing "father, mother, my brethren..."
R3
|---------------------------------------------------------------------------|
|---------------------------------------------------------------------------|
|---------------------------------------------------------------------------|
|---------------------------------------------------------------------------|
|-12--12-12-12/15-15-15--15--15-15-15-15/17-17-17/19-19---------------------|
|-10--10-10-10/13-13-13--13--13-13-1313/15-15-15/17-17----------------------|

The rest of the song is just a bunch of chords that are already in this tabliture. Just
listen and figure it out, it will take you ten seconds.
Suggest correction
Give kudos to tab author, rate the tab!
1 2 3 4 5
comments
print report bad tab
guest
You may want to rate the tab now too:
select rating
Wanna post a correction for this tab? Suggest correction