Oops, an error
Loading. Please wait.

Bokkie bass

by Elefant
1,216 views 3 this week
no commentswrite comment
1 2 3 4 5
3 more votes to show rating
add to favorites
×
Save as Personal and add changes to this tab that will be seen only by you. Learn more ›
×
You can save this tab as Personal to edit and correct it or add notes. All changes will be seen only by you. Learn more »
launch autoscroll
font size
0
reset
guitar tuner
edit
Autoscroll
slow
fast
+/-
esc
set tempo
stop
Author
Bokkie by Elefant

Intro
G------------------------2-2--2-2--2-2--2-0-2-0-3-3--3-3--3-3--3-0-3-0-2-2--2-2--2-2-|
D-3-3--3-3--3-3--3-0-3-0-------------------------------------------------------------|
A------------------------------------------------------------------------------------|
E------------------------------------------------------------------------------------|

Verse1
G---------------------------2-2--2-2--2-2--2-0-2-0-3-3--3-3--3-3--3-0-3-0-2-2--2-2--2-2-|
D----3-3--3-3--3-3--3-0-3-0-------------------------------------------------------------|
A-8/------------------------------------------------------------------------------------|
E---------------------------------------------------------------------------------------|

G---------------------------2-2--2-2--2-2--2-0-2-0-3-3--3-3--3-3--3-0-3-0-2-2--2-2--2-2--2-0-2-0--|
D----3-3--3-3--3-3--3-0-3-0-----------------------------------------------------------------------|
A-8/----------------------------------------------------------------------------------------------|
E-------------------------------------------------------------------------------------------------|

Chorus1
G-------------------------------------------------------------------|
D-------------------------------------------------------------------|  x3
A---------------------------------8-8-8-8-8-8-8-8-7-7-5-5-3-3-0-0---|
E-6-6-6-6-6-6-6-6-6-6-6-6-6-6-6-6-----------------------------------|

Ending Chorus
E-6-6-6-6-6-6-6-6-6-6-6-6-6-6-6-6-5-5-5-5-5-5-5-5-6-6-6-6-6-6-6-6

Solo
G------------------------2-2--2-2--2-2--2-0-2-0-3-3--3-3--3-3--3-0-3-0-2-2--2-2--2-2-|
D-3-3--3-3--3-3--3-0-3-0-------------------------------------------------------------|
A------------------------------------------------------------------------------------|
E------------------------------------------------------------------------------------|

Verse2
G---------------------------2-2--2-2--2-2--2-0-2-0-3-3--3-3--3-3--3-0-3-0-2-2--2-2--2-2--2-0-2-0--|
D----3-3--3-3--3-3--3-0-3-0-----------------------------------------------------------------------|
A-8/----------------------------------------------------------------------------------------------|
E-------------------------------------------------------------------------------------------------|

Chorus2
G-------------------------------------------------------------------|
D-------------------------------------------------------------------|  x2
A---------------------------------8-8-8-8-8-8-8-8-7-7-5-5-3-3-0-0---|
E-6-6-6-6-6-6-6-6-6-6-6-6-6-6-6-6-----------------------------------|

Ending Chorus
E-6-6-6-6-6-6-6-6-6-6-6-6-6-6-6-6-5-5-5-5-5-5-5-5-6-6-6-6-6-6-6-6

Verse 3
B-----------------------2-2--2-2--2-2--2-0-2-0-3-3------3-3------2-2--2-2--2-2-|
D-3-3--3-3--3-3--3-0-3-0-----------------------------8/-------8/---------------|
A------------------------------------------------------------------------------|
E------------------------------------------------------------------------------|

G---------------------------2-2--2-2--2-2--2-0-2-0-3-3--3-3--33--3-0-3-0-2-2--2-2--2-2-|
D----3-3--3-3--3-3--3-0-3-0------------------------------------------------------------|
A-8/-----------------------------------------------------------------------------------|
E--------------------------------------------------------------------------------------|

Chorus3
G-------------------------------------------------------------------|
D-------------------------------------------------------------------|  x2
A---------------------------------8-8-8-8-8-8-8-8-7-7-5-5-3-3-0-0---|
E-6-6-6-6-6-6-6-6-6-6-6-6-6-6-6-6-----------------------------------|

Ending Chorus
E-6-6-6-6-6-6-6-6-6-6-6-6-6-6-6-6-5-5-5-5-5-5-5-5-6-6-6-6-6-6-6-6


Outro

G--------------------------------                G------|
D-------------------------------- x8      Ending D------|
A---------1-1-1-1-0-0-0-0-1-1-1-1                A------|
E-1-1-1-1------------------------                E-1~~~-|

thanks
questions comments dioz_99@hotmail.com made in Mecsicou
this song is for you any ´cause "your smile drives me crazy, lady..."
Suggest correction
Creating personal tab
Creating personal tab
You can edit any tab online and save it as your Personal.

You can edit, replace or remove any tab part or add personal notes – all changes will be seen only by you.

Personal tabs can be accessed anytime from any device, even offline.
Learn more »
Give kudos to tab author, rate the tab!
1 2 3 4 5
comments
print report bad tab
guest
You may want to rate the tab now too:
select rating
Wanna post a correction for this tab? Suggest correction