Oops, an error
Loading. Please wait.

Lolita Bass Tab

version 1
version 1

Whole song

Interactive

1,165 views 1 this week
no commentswrite comment
1 2 3 4 5
please rate
add to favorites
launch autoscroll
font size
0
reset
guitar tuner
Tab Pro tools
  • play this tab
  • loop segment
  • change instrument
  • show fretboard
  • metronome
×
Best way to learn
"Lolita"
Autoscroll
slow
fast
+/-
esc
set tempo
stop
Contributor
-------------------------------------------------------------------------------
			     LOLITA - Elefant
-------------------------------------------------------------------------------

Tabbed By : Luis Gustavo Hernández Collado
e-mail: ltavo_87@hotmail.com

Tuning: EADG

Intro
G|-----|
D|-----|
A|-----|
E|-0---|

G|-----|
D|-----|
A|-----|
E|-0-0-|

G|---------------------------------------|
D|---------------------------------------|
A|----------2-2-0-0-2--------------------|
E|-0-0--2-2-----------0-0--2-2-3-3-2-2-0-|

Verse 1
(Can you tell me what you're thinking?...)
G|---------------------------------------------|
D|---------------------------------------------| X5
A|-------------2-2-0-0-2-----------------------|
E|-0-0--2-2--------------0-0--2-2----3-3-2-2-0-|

Chorus 1
(Run away, Run away...)
G|--------------|
D|--------------|
A|-000000222222-|
E|--------------|

(...Lola, is on the floor...)
G|---------------------------------|
D|-----------00-0-00-0-44-4-44-0-2-| X2
A|-22-2-22-2-----------------------|
E|---------------------------------|

G|--------------------------------------------|
D|--------------------------------------------|
A|----------00----22-00-2----------00---------|
E|-00-33-22----33---------00-33-22----33-22-0-|

Verse 2
(Am I wrong for loving Lola?...)
G|---------------------------------------------|
D|---------------------------------------------|
A|-------------2-2-0-0-2-----------------------|
E|-0-0--2-2--------------0-0--2-2----3-3-2-2-0-|

G|------------------------------------|
D|------------------------------------|
A|-------------2-2-0-0-2-------222222-|
E|-0-0--2-2--------------333333-------|

Chorus 2
(...Lola, is on the floor...)
G|---------------------------------|
D|-----------00-0-00-0-44-4-44-0-2-| X2
A|-22-2-22-2-----------------------|
E|---------------------------------|

Bridge
(I hear the devil calling...)
G|--------------------------0--|
D|-2222220222222022022022022-2-|X4
A|-----------------------------|
E|-----------------------------|

G|-------------|
D|-------------|X4
A|---------002-|
E|-00-22-------|

G|-------------|
D|-------------|X3
A|----------00-|
E|-00-33-22----|

G|-------------------------|
D|-------------------00--2-|
A|----------00----22-------|
E|-00-33-22----33----------|

Chorus 3
(...Lola, is on the floor...)
G|---------------------------------|
D|-----------00-0-00-0-44-4-44-0-2-| X4
A|-22-2-22-2-----------------------|
E|---------------------------------|

Outro
G|------------------------|
D|------------------------| X3
A|----------00----22-00-2-|
E|-00-33-22----33---------|

G|---------------------|
D|---------------------|
A|----------00---------|
E|-00-33-22----33-22-0-|
comments
We did not receive enough feedback on this tab! Please rate:
print report bad tab
1 2 3 4 5
I want to post or [tab]
guest
You may want to rate the tab now too:
select rating
Please do not post tabs as comments. Select "correction" instead!