Oops, an error
Loading. Please wait.

1157 tab

version 1
version 1

Whole song

Interactive

2,380 views 1 this week
4 commentsread comments
1 2 3 4 5
x 9
add to favorites
×
Save as Personal and add changes to this tab that will be seen only by you. Learn more ›
×
You can save this tab as Personal to edit and correct it or add notes. All changes will be seen only by you. Learn more »
launch autoscroll
font size
0
reset
how to read this tab
guitar tuner
edit
Autoscroll
slow
fast
+/-
esc
set tempo
stop
Author
Difficulty
Tabbed by the slayer/simon manu

Normal tuning e,b,g,D,A,E

No one else has tabbed this yet so hope its ok

Intro
E|----------------------|
B|----------------------|
G|----------------------|
D|-------777-------777--| x3
A|--777--555--444--555--|
E|--555-------222-------|

E|-------------------------|
B|-------------------------|
G|-------------------------|
D|-------777------------2~-|    ~ =hold
A|--777--555--444--222--0~-|  
E|--555-------222--000-----|

No Guitar Just Bass And Vocals

Verse (Bass)
G|------------------------|
D|------------------------|
A|-------5555-------5555--| 
E|--5555-------2222-------|

G|-------------------------|
D|-------------------------|
A|-------5555--------------|
E|--5555-------2222--0000--|

Play 2 Times Then

Verse P.M.
E|--------------------------|
B|--------------------------|
G|--------------------------|
D|--------7777--------7777--| 
A|--7777--5555--4444--5555--|
E|--5555--------2222--------|

P.M.
E|--------------------------|
B|--------------------------|
G|--------------------------|
D|--------7777--------------|
A|--7777--5555--4444--2222--|
E|--5555--------2222--0000--|

Chorus
E|-------------------------|-------------------------|
B|-------------------------|-------------------------|
G|-------------------------|-------------------------|
D|--------7777--------7777-|-------7777--------------| x3
A|--7777--5555--4444--5555-|-7777--5555--4444--2222--|
E|--5555--------2222-------|-5555--------2222--0000--|

Guitar Break
E|---------------------------------------------------|
B|---------------------------------------2-3p2--3/5--|
G|--222---2-4--222---2-4--222---2-4--22--------------|
D|------2----------2----------2----------------------|
A|---------------------------------------------------|
E|---------------------------------------------------|

Bass And Vocals Again

Guitar bit
E|--5---5---5---5-7-|
B|----5---5---5-----|
G|------------------|
D|------------------| x8
A|------------------|
E|------------------|

Then The Chorus Again

SOLO
E|----------------|
B|----------------|
G|----------------|
D|--2~------2~----|
A|--0~------0~----|
E|----------------|

E|---------------------------------------------------------|
B|---------------------------------------------------------|
G|-----------11----------------11----------------11--------|
D|--11h12h14----14p12-11h12h14----14p12-11h12h14----14p12--|
A|---------------------------------------------------------|
E|---------------------------------------------------------|

E|--------------------------------------------9h10p9-----|
B|--------------------------------------10h12---------12-|
G|-----------11------------------------------------------|
D|--11h12h14----14p12--11h12p11--------------------------|
A|------------------------------12-14--------------------|
E|-------------------------------------------------------|

E|--------9h10p9----------9h10p9-------------------------------------|
B|--10h12--------12-10h12--------12-10h12p10-----9----9----9-10-9----|
G|--------------------------------------------11---11---11--------11-|
D|-------------------------------------------------------------------|
A|-------------------------------------------------------------------|
E|-------------------------------------------------------------------|

Outro
E|-----------------------------------------------------|
B|-----------------------------------------------------|
G|-----------------------------------------------------|
D|--------7777--------7777--------7777--------------2~-|
A|--7777--5555--4444--5555--7777--5555--4444--2222--0~-|
E|--5555--------2222--------5555--------2222--0000-----|

Order: 
Intro         x1
Verse         x2
Chorus        x3
Guitar break  x1
Guiter bit    x8
Chorus        x3
solo          x1
Outro         X4

Hope Yoy Enjoy

            
            
Suggest correction
Creating personal tab
Creating personal tab
You can edit any tab online and save it as your Personal.

You can edit, replace or remove any tab part or add personal notes – all changes will be seen only by you.

Personal tabs can be accessed anytime from any device, even offline.
Learn more »
comments
print report bad tab
4 comments total. Showing first comments.
0 reply
dariog 10 Nov 03, 2005 09:06 PM

Nice tab dude but the main riff is a little off :) He does a little walkdown thingee like this (timing is off but you can get it)

--------------------------------
--------------------------------
--------9--7--6--4-------7------
--7-----x--x--x--x--4----7-x4---
--7-x4--7--5--4--2--4-x4-5------
--5-----------------2-----------

(You can leave out the B in the walkdown and it still sounds all G)

0 reply
henryt-bags 90 Nov 12, 2005 02:37 PM

nice one - you got the solo perfect. Awesome!!

0 reply
skull1 10 Jul 17, 2009 12:37 AM

this he the best nice tab many thanks :)

guest
You may want to rate the tab now too:
select rating
Wanna post a correction for this tab? Suggest correction