Oops, an error
Loading. Please wait.

Id Do Anything Bass Tab

273 views 1 this week
no commentswrite comment
1 2 3 4 5
please rate
add to favorites
launch autoscroll
font size
0
reset
guitar tuner
Autoscroll
slow
fast
+/-
esc
set tempo
stop
Help us to improve Ultimate-Guitar.com Take our survey!
×
Author
Song: I'd Do Anything
Artist: Element 94
Tabbed by: Valerie L
e-mail: iloled@yahoo.com
Intro
G|-----------|
D|-----------|
A|-3333-55---|
E|---------6-|

G|----------------------------------------------------|
D|----------------------------------------------------|
A|--------66-6~--------------------------666----------|
E|-33-3~---------66-6-88-8-1010-66--3333-----6666-888-|

Verse
G|----------------------|----------------|
D|----------------------|----------------|
A|------666-------------|-66666666-------|
E|-3333-----66666/8-888-|----------88888-|

Chorus
Keep playing this until (1:20)
G|----------------------|
D|----------------------|
A|------666-------------|
E|-3333-----66666/8-888-| 

G|----------------------|
D|----------------------|
A|------66-6------------|
E|-33-3------66-6-88-8--| x4

Chorus
G|----------------------|
D|----------------------|
A|------666-------------|
E|-3333-----66666/8-888-| 

Verse
G|----------------------|
D|----------------------|
A|------66-6------------|
E|-33-3------66-6-88-8--| x8

Chorus x3
Suggest correction
Give kudos to tab author, rate the tab!
1 2 3 4 5
comments
print report bad tab
guest
You may want to rate the tab now too:
select rating
Wanna post a correction for this tab? Suggest correction