Oops, an error
Loading. Please wait.

Its Not Right Bass Tab

44 views 1 this week
no commentswrite comment
1 2 3 4 5
please rate
add to favorites
launch autoscroll
font size
0
reset
guitar tuner
Autoscroll
slow
fast
+/-
esc
set tempo
stop
Help us to improve Ultimate-Guitar.com Take our survey!
×
Author
tabbed by: valerie
e-mail: v_vengeance6661@yahoo.com

Intro
G|-----------------------------|
D|-----------------------------|
A|--------2-3333--------5-3333-|
E|-33333---------33333---------| x2

Verse
G|-------------------------------------|
D|-------------------------------------|
A|-----------223333------------553333--|
E|-33333333----------33333333----------| x2

Chorus
G|---------------------------|
D|---------------------------|
A|--------23333-------53333--|
E|-33333--------33333--------| x2

Bridge
G|------------------------------------------------|
D|------------------------------------------------|
A|---------------------333-5----------------333-5-|
E|-3-3-3-3-3-2-0-0-0-0-------3333333-2-0000-------| x2

G|-----------------------------|
D|-----------------------------|
A|--------2-3333--------5-3333-|
E|-33333---------33333---------| x2
Suggest correction
Give kudos to tab author, rate the tab!
1 2 3 4 5
comments
print report bad tab
guest
You may want to rate the tab now too:
select rating
Wanna post a correction for this tab? Suggest correction