Oops, an error
Loading. Please wait.

Never Bass Tab

50 views 1 this week
no commentswrite comment
1 2 3 4 5
please rate
add to favorites
launch autoscroll
font size
0
reset
guitar tuner
Autoscroll
slow
fast
+/-
esc
set tempo
stop
Help us to improve Ultimate-Guitar.com Take our survey!
×
Author
Song: Never
Artist: Element 94
Album: Every Little Bit Helps
Tabbed by: valerie louie
e-mail: v_vengeance6661@yahoo.com

Intro
Bass enters at (0:08)
G|------------------|
D|------------------|
A|--5~--------------|
E|------3~--0~--3~--| x3

Break:
G|-----------------------------------------------|
D|-----------------------------------------------|
A|--55555555555----------------------------------|
E|--------------33333333333-00000000000-3333-333-| x2

Verse
G|------------------------------------------------------|
D|------------------------------------------------------|
A|--55555555555-----------------------------------------|
E|--------------33333333333-00000000000-333333333333333-| x2

Chorus:
G|-------------------------------------|    |-------------------------------|
D|-------------------------------------|    |-------------------------------|
A|-55555555555555-5/7------------------|    |-------------------------------|
E|--------------------3333333333333333-| x2 |000000000-3333333333-0000000003|

break x2
verse x2
Chorus x1

Bridge
G|------------|    |-----------------------------------|
D|------------|    |-----------------------------------|
A|-55---------|    |-5-5-5-5---------------------------|
E|----33-00-33| x2 |---------3-3-3-3-00000000-33333333-|

Chorus x1
Suggest correction
Give kudos to tab author, rate the tab!
1 2 3 4 5
comments
print report bad tab
guest
You may want to rate the tab now too:
select rating
Wanna post a correction for this tab? Suggest correction