Oops, an error
Loading. Please wait.

The Itch bass

version 1
version 1

Whole song

Interactive

321 views 1 this week
1 commentread comment
1 2 3 4 5
3 more votes to show rating
add to favorites
×
Save as Personal and add changes to this tab that will be seen only by you. Learn more ›
×
You can save this tab as Personal to edit and correct it or add notes. All changes will be seen only by you. Learn more »
launch autoscroll
font size
0
reset
guitar tuner
edit
Autoscroll
slow
fast
+/-
esc
set tempo
stop
Author
This is my first tab ever... I know it isn't 100% accurate but I hate not seeing tabs 
this band so I have to do something. Please give me feedback.... kataneis@yahoo.com

Intro
-------------------------------------------------------------|
-------------------------------------------------------------|
--------------5-----2-----3-555----------------7-----4-----5-|
1111-1111-3-3---3-3---3-3-------1111--1111-5-5---5-5---5-5---| x1

Verse
-------------------------|--------------------|
-------------------------|--------------------|
-------------------------|----------------6-5-|
-3-5-6-5-3-5-6-6-6-6-5-5-|-0-3-5-6-5--3-5-----| x2

-------------------|
-------------------|
-------7-5---------|
-8-7-5-----7-5-7-5-| x2

Pause for guitar, then
-----------|
-----------|
-----------|
-7-5-3-5-6-| x2

-----------|
-----------|
-----------|
-0h1-0-0-0-|


No Idea on the chorus....0:44-1:19...1:52-2:22

Then back to Verse

            
            
Suggest correction
Creating personal tab
Creating personal tab
You can edit any tab online and save it as your Personal.

You can edit, replace or remove any tab part or add personal notes – all changes will be seen only by you.

Personal tabs can be accessed anytime from any device, even offline.
Learn more »
Give kudos to tab author, rate the tab!
1 2 3 4 5
comments
print report bad tab
1 comment total.
0 reply
slipknot_4_life 51 Mar 29, 2007 02:25 AM

Hey whats the tuning?

guest
You may want to rate the tab now too:
select rating
Wanna post a correction for this tab? Suggest correction