Oops, an error
Loading. Please wait.

Weisses Papier tab

version 1
version 1

Whole song

3,275 views 18 this week
no commentswrite comment
1 2 3 4 5
3 more votes to show rating
add to favorites
×
Save as Personal and add changes to this tab that will be seen only by you. Learn more ›
×
You can save this tab as Personal to edit and correct it or add notes. All changes will be seen only by you. Learn more »
launch autoscroll
font size
0
reset
how to read this tab
guitar tuner
edit
Autoscroll
slow
fast
+/-
esc
set tempo
stop
Author
Difficulty
intermediate
Intro:
Dm                   Am                              Gm           F
--------10------12------13---------8------10-----12--------5H3----------3H1---|
-----10----10------10-----------10---10------10----------3-----3------1-----1-|
---10---------10------10------9---------9-------9------3------------2---------|
-0----------------------------------------------------------------------------|
----------------------------0-------------------------------------------------|
-----------------------------------------------------3------------1-----------|

Bb            A
-------1------------0------------|
-----3---3--------2---2----------|
---3-------3----2-------2--------|
---------------------------------|
-1------------0------------------|
---------------------------------|

während der Strophe wird immer gleich zerlegt: p i m a m i (Daumen, Zeige-, Mittel-, 
Ring-, Mittel, Zeigefinger)

2x Dm, 2x Am, Gm, F, Bb, A (wie während der Strophe), dann 2x Intro

Dm 
Ich nehm' deine Katze und schüttel' sie aus
    Am 
bis alles herausfällt
        Gm                     F
was sie jemals aus meiner Hand fraß
  B                        A
später klopf' ich noch den Teppich aus

    Dm
und find' ich ein Haar von mir darin
      Am
dann steck' ich es einfach ein
 Gm                     F
nichts soll dir böse Erinnerung sein
    Bb                 A
verraten was ich dir gewesen bin

    Bb                       C
sag nicht daß das gar nicht nötig wär'
      C                       F
denn schmerzhaft wird es erst hinterher
              A                     Dm
wenn wieder hochkommt was früher mal war
      Gm                A7                  Dm
dann lieber so rein so dumm sein wie weißes Papier.     

Intro

     Dm
Auch werd' ich in Zukunft ein and'rer sein
    Am
als der den du in mir sahst
    Gm                 F
die Hose die du mir gehäkelt hast
       Bv                     A
tu ich in den Container der Heilarmee rein

       Bb                 C
ich eß auf dem Fußboden aus der Hand
         C                  F
seh' mir jeden Trickfilm im Fernseh'n an
          A                      Dm
alles was du nicht magst lobe ich mir
           Gm               A7                   Dm
ich werd einfach so rein so dumm sein wie weißes Papier.

Intro


            
            
Suggest correction
Creating personal tab
Creating personal tab
You can edit any tab online and save it as your Personal.

You can edit, replace or remove any tab part or add personal notes – all changes will be seen only by you.

Personal tabs can be accessed anytime from any device, even offline.
Learn more »
Give kudos to tab author, rate the tab!
1 2 3 4 5
comments
print report bad tab
guest
You may want to rate the tab now too:
select rating
Wanna post a correction for this tab? Suggest correction