Oops, an error
Loading. Please wait.

I Fall So Deep Tab

3,035 views 1 this week
no commentswrite comment
1 2 3 4 5
3 more votes to show rating
add to favorites
launch autoscroll
font size
0
reset
how to read this tab
guitar tuner
Autoscroll
slow
fast
+/-
esc
set tempo
stop
Help us to improve Ultimate-Guitar.com Take our survey!
×
Author
Standard Tuning

|-x-|
|-x-|
|-x-|<-----  TAP
|-x-|
|-x-|
|-x-|

This intro really sounds like the ones in the song :) 1st tab.

e|----------x---x---x--3-2-------x---x---x-----|
B|-0h1s3---3x3--x--3x3------3---3x3--x--3x3----|
G|----------x---x---x------------x---x---x-----|
D|----------x---x---x------------x---x---x-----|
A|----------x---x--3x3----------3x3--x---x-----|
E|---------3x3--x---x------------x---x--2x2----|

e|----------x--------x---3-2------x------------|
B|-0h1s3---3x3s5----3x3------3---3x3--------3--|
G|----------x--------x------------x-------0----|
D|----------x--------x------------x------0-----|
A|----------x-------3x3----------3x3-----------|
E|---------3x3-------x------------x-----2------|

Verse :

e|--x---x---x---x---x---x--x---x---x---x---x---x---x------|
B|-3x3--x--3x3--x--3x3--x--3x3-x--3x3--x--3x3--x--3x3-----|
G|--x---x---x---x---x---x---x--x---x---x---x---x---x------|
D|--x---x---x---x---x---x---x--x---x---x---x---x---x------|
A|--x---x--3x3--x---x---x--3x3-x---x---x--3x3--x---x------|
E|-3x3--x---x---x--3x3--x---x--x--3x3--x---x---x--3x3-----|

Pre-Chorus :

e|-------x---x---x-----2x2------------------1---|
B|-3----3x3--x--3x3----3x3------------2---------|
G|-------x---x---x-----2x2--------0-------------|
D|-------x---x---x-----0x0----0-----------------|
A|-3-----x---x--3x3-----x-----------------------|
E|------2x2--x---x------x----3------------------|


Chorus :

e|--x---x---x---x---x---x--x---x---x---x---x---x---x------|
B|-3x3--x--3x3--x--3x3--x--3x3-x--3x3--x--3x3--x--3x3-----|
G|--x---x---x---x---x---x---x--x---x---x---x---x---x------|
D|--x---x---x---x---x---x---x--x---x---x---x---x---x------|
A|--x---x--3x3--x---x---x--3x3-x---x---x--3x3--x---x------|
E|-3x3--x---x---x--3x3--x---x--x--3x3--x---x---x--3x3-----|

e|-------x---x---x-----2x2------------------1---|
B|-3----3x3--x--3x3----3x3------------2---------|
G|-------x---x---x-----2x2--------0-------------|
D|-------x---x---x-----0x0----0-----------------|
A|-3-----x---x--3x3-----x-----------------------|
E|------2x2--x---x------x----3------------------|

Any Questions or Suggestions E-mail at : creatix83@yahoo.com

http://www.imeem.com/people/0qkQpz/music/LY72R8ZP/eol_i_fall_so_deep/
Suggest correction
Give kudos to tab author, rate the tab!
1 2 3 4 5
comments
print report bad tab
guest
You may want to rate the tab now too:
select rating
Wanna post a correction for this tab? Suggest correction