Oops, an error
Loading. Please wait.

Clarity Tab

79 views 1 this week
no commentswrite comment
1 2 3 4 5
please rate
add to favorites
launch autoscroll
font size
0
reset
how to read this tab
guitar tuner
Tab Pro tools
  • play this tab
  • loop segment
  • change instrument
  • show fretboard
  • metronome
×
Best way to learn
"Clarity"
Autoscroll
slow
fast
+/-
esc
set tempo
stop
Contributor
Notations

b: Bend to note in bracket
r: Release to note in bracket
p: Pull off
h: Hammer on
~: Vibrato
/: Slide up neck
\: Slide down neck

   Tuning: Drop D

   Rhy.Fig.1(Verse)
   Gtr.1 (Clean Tone)

        sl               h  h
e|------------------------------|
B|------------------------------|
G|------------------------------|
D|----13/14----------x----------|
A|-12-12/13--12-0-12-x-12^13^14-|
E|-12--------12-0-12-x----------|

        sl
e|------------------------------|
B|------------------------------|
G|------------------------------|
D|----13/14---------------------|
A|-12-12/13--12-0-12---12--13---|
E|-12--------12-0-12------------|

        sl               h  h
e|------------------------------|
B|------------------------------|
G|------------------------------|
D|----13/14----------x----------|
A|-12-12/13--12-0-12-x-12^13^14-|
E|-12--------12-0-12-x----------|

        sl                p
e|------------------------------|
B|------------------------------|
G|------------------------------|
D|----13/14----------12---------|
A|-12-12/13--0-12-13----13^12---|
E|-12---------------------------|


   Rhy.Fig.2 (Chorus)
   Gtr.2 (W/Dist)

e|-----7-----7-----8-----8-----10-|
B|---8---8-----8-----8-----8------|
G|-7-------7-----7-----7-----7----|
D|--------------------------------|
A|--------------------------------|
E|--------------------------------|
 |
 | Gtr.3 (W/Dist)
 |
e|--------------------------------|
B|--------------------------------|
G|--------------------------------|
D|-5---5---5---5---5---5---5---5--|
A|-5---5---5---5---5---5---5---5--|
E|-5---5---5---5---5---5---5---5--|


  PM_______________     PM_______________
e|------------------------------------------|
B|------------------------------------------|
G|------------------------------------------|
D|------------------3~~---------------------|
A|-3-5--55--3-5-3-5-----3-5--55--3-5-3-5----|
E|---------------------------------------3--|

   *Play Rhy.Fig.2 twice then end on the following


e|---------------------|
B|---------------------|
G|---------------------|
D|---------------------|
A|-5-5---6-6---8-8---0-|
E|-5-5---6-6---8-8---0-|


   Rhy.Fig.3 (Interlude Part I)
   Gtr.1

                    sl
e|------------------------|
B|-----6------5-----------|
G|-----5--------5---------|
D|----------5-----5-------|
A|-5------3---------4/(5)-|
E|------------------------|
 |
 | Gtr.4 (Clean tone)
 | *Comes in after Gtr.1 has played 4 times)
 |
e|----------------------|
B|---6---6---5---5------|
G|---5---5---5---5------|
D|----------------------|
A|----------------------|
E|----------------------|

    Rhy.Fig.4 (Interlude Part II)
    Gtr.1

e|----------------------|
B|---6-------5----------|
G|---5-------5----------|
D|---4-------5----------|
A|---5-------3----------|
E|----------------------|
 |
 | Gtr.4
 | *Comes in after Gtr.1 has played 4 times)
 |
e|----------------------|
B|---6-6-6---5--5-5-55--|
G|---5-5-5---5--5-5-55--|
D|----------------------|
A|----------------------|
E|----------------------|

   Gtr.5 (w/Heavy Dist)

e|---3---3-|
B|---------|
G|-5---5---|
D|---------|
A|---------|
E|---------|


   Rhy.Fig.5

e|--------------------|
B|--------------------|
G|------x7-------x5---|     x3
D|------x--------x----|
A|-3-0--x5--0-3--x3---|
E|-3-0------0-3-------|

                PM____
e|--------------------|
B|--------------------|
G|------x7------5-5-5-|
D|------x-------5-5-5-|
A|-3-0--x5--0-3-3-3-3-|
E|-3-0------0-3-------|

e|--------------------|
B|--------------------|
G|------x7-------x5---|     x4
D|------x--------x----|
A|-3-0--x5--0-3--x3---|
E|-3-0------0-3-------|


e|---
B|---
G|-7-
D|-7-
A|-5-
E|-3-
comments
We did not receive enough feedback on this tab! Please rate:
print report bad tab
1 2 3 4 5
I want to post or [tab]
guest
You may want to rate the tab now too:
select rating
Please do not post tabs as comments. Select "correction" instead!