Oops, an error
Loading. Please wait.

Mighty Warrior tab

1,971 views 18 this week
no commentswrite comment
1 2 3 4 5
3 more votes to show rating
add to favorites
×
Save as Personal and add changes to this tab that will be seen only by you. Learn more ›
×
You can save this tab as Personal to edit and correct it or add notes. All changes will be seen only by you. Learn more »
launch autoscroll
font size
0
reset
how to read this tab
guitar tuner
edit
Autoscroll
slow
fast
+/-
esc
set tempo
stop
Author
Difficulty
-------------------------------------------------------------------------------
                       Mighty Warrior - Elevation Worship
-------------------------------------------------------------------------------
Tabbed by:Dunkadooball
E-mail:

Tuning: Standard
Intro and Verses Guitar 1
e|----0-----|
B|----1-----|
G|----0-----| (Play here and there but don't overdo it)
D|----------|
A|----------|
E|----------|
Intro and Verses Guitar 2
e|----0-----|
B|----16b17-|
G|----------| (same rules apply to this one also I'd recommend good distortion)
D|----------|
A|----------|
E|----------|
Interlude Guitar 1 
e|-0-----------0------1------0-----------------------------------------------|
B|---1---3-0-----1------1----1-----------------------------------------------|
G|-----0-----0-----0------0--0-----------------------------------------------|
D|---------------------------------------------------------------------------|
A|---------------------------------------------------------------------------|
E|---------------------------------------------------------------------------|
Interlude Guitar 2
e|---------------------------------------------------------------------------|
B|---------------------------------------------------------------------------|
G|-9--9--9--9--9--9--9--9--7-7-7-7-7-7-7-7-9-9-9-9-9-9-9-9-------------------|
D|-10-10-10-10-10-10-10-10-5-5-5-5-5-5-5-5-7-7-7-7-7-7-7-7-------------------|
A|---------------------------------------------------------------------------|
E|---------------------------------------------------------------------------|

e|---------------------------0-----------------------------------------------|
B|---------------------------16b17-------------------------------------------|
G|-10-10-10-10-10-10-10-10---------------------------------------------------|
D|---------------------------------------------------------------------------|
A|-8--8--8--8--8--8--8--8----------------------------------------------------|
E|---------------------------------------------------------------------------|
Chorus Guitar 1
e|---------------------------------------------------------------------------|
B|---------------------------------------------------------------------------|
G|-5-5-5-5-5-5-5-5-----------------------------------------------------------|
D|-5-5-5-5-5-5-5-5-5-5-5-5-5-5-5-5-7-7-7-7-7-7-7-7-3-3-3-3-3-3-3-3-----------|
A|-3-3-3-3-3-3-3-3-5-5-5-5-5-5-5-5-7-7-7-7-7-7-7-7-3-3-3-3-3-3-3-3-----------|
E|-----------------3-3-3-3-3-3-3-3-5-5-5-5-5-5-5-5-1-1-1-1-1-1-1-1-----------|
Chorus Guitar 2
e|----------|
B|----------|
G|----------| (yep just keep playing till the chorus is over)
D|----10----|
A|----------|
E|----------|
Bridge (Either guitar can play this)
e|---------------------------------------------------------------------------|
B|---------------------------------------------------------------------------|
G|---------5-5-5-5-------------------------5-5-5-5---------7-7-7-7-----------|
D|-3-3-3-3-5-5-5-5-5-5-5-5-7-7-7-7-3-3-3-3-5-5-5-5-5-5-5-5-7-7-7-7-----------|
A|-3-3-3-3-3-3-3-3-5-5-5-5-7-7-7-7-3-3-3-3-3-3-3-3-5-5-5-5-5-5-5-5-----------|
E|-1-1-1-1---------3-3-3-3-5-5-5-5-1-1-1-1---------3-3-3-3-------------------|
The Riff (cant remember exactly where its played by the guitar so here it is)
e|-----------------|
B|-----------------|
G|-----------------|
D|-----------------|
A|-------3-----7---|
E|-5--1-----5------|



************************************

| /   slide up
| \   slide down
| h   hammer-on
| p   pull-off
| ~   vibrato
| +   harmonic
| x   Mute note
| b   Bend
| pb  Pre-bend
| br  Bend release
| pbr Pre-bend release
| brb Bend release bend

************************************

            
            
Suggest correction
Creating personal tab
Creating personal tab
You can edit any tab online and save it as your Personal.

You can edit, replace or remove any tab part or add personal notes – all changes will be seen only by you.

Personal tabs can be accessed anytime from any device, even offline.
Learn more »
Give kudos to tab author, rate the tab!
1 2 3 4 5
comments
print report bad tab
guest
You may want to rate the tab now too:
select rating
Wanna post a correction for this tab? Suggest correction