Oops, an error
Loading. Please wait.

Only King Forever tab

version 3
version 3

Whole song

  • This is my rendition based on the worship team res... Show more

Interactive

241 views 12 this week
no commentswrite comment
1 2 3 4 5
3 more votes to show rating
add to favorites
×
Save as Personal and add changes to this tab that will be seen only by you. Learn more ›
×
You can save this tab as Personal to edit and correct it or add notes. All changes will be seen only by you. Learn more »
launch autoscroll
font size
0
reset
how to read this tab
guitar tuner
edit
Autoscroll
slow
fast
+/-
esc
set tempo
stop
Author
Difficulty
About this tab version
This is my rendition based on the worship team resources where I currently worship. Much of the time I’m the only electric guitarist so I feel obligated to combine some of the Electric Guitar 1 and 2 parts. Really I just end up playing the most recognizable parts regardless if Electric 1 or 2. Enjoy and I’m certainly open to positive/productive feedback. Was this info helpful? Was this info helpful? Yes No
Key: C   BPM: 69                                                Tone: light Overdrive
Ele Guitar 2: Rhythm
Effects: Delay.1/8th /Reverb

[Intro]
    C                   C                      Am7       F         C            C
e|---------------------|------------------------|----------|-----------|-----------||------|
B|---------------------|------------------------|----------|-----------|-----------||------|
G|--12t-------10t------|--9t-------/----14t-----|--9t------|--10t------|-9t--------||--12--|
D|---------------------|------------------------|----------|-----------|-----------||------|
A|---------------------|------------------------|----------|-----------|-----------||------|
E|---------------------|------------------------|----------|-----------|-----------||------|

[Verse 1]
Rest C                       C                           Am7      F
    Our God, a firm foundation Our rock, the only solid ground As nations rise and fall
Play C               F            C                              Am7
    Kingdoms once strong now shaken   But we trust for-ever in your name
e|---------------|-----------------|------------------|-------------------|
B|---------------|-----------------|------------------|-------------------|
G|--12-----------|-10--------------|-9----------------|-------------------|
D|---------------|-----------------|------------------|----10--h--12--10--|
A|---------------|-----------------|------------------|-------------------|
E|---------------|-----------------|------------------|-------------------|
        F         C   Am7          F
    The name of Jesus  We trust the name of Jesus
e|------------|------|-------------|-----------------|
B|------------|------|-------------|-----------------|
G|--10-----9--|------|-------------|--9----10--------|
D|------------|--10--|--h----12----|-10----10--------|
A|------------|------|-------------|-----------------|
E|------------|------|-------------|-----------------|

[Chorus]
Heavy  C                        C/E    F
    You are the only King forever       Almighty God we lift you higher
e|--12------12--12---12--|-12--12-----|----17------17-17-17-|-17--17--17-17--|
B|--13------13--13---13--|-13--13-----|----17-h-18-18-18-18-|-18--18--18-18--|
G|--12-h-14-14--14-p-12--|-12--12-----|----17------17-17-17-|-17--17--17-17--|
D|-----------------------|------------|---------------------|----------------|
A|-----------------------|------------|---------------------|----------------|
E|-----------------------|------------|---------------------|----------------|
    C/G                       C/E   F
    You are the only King forever      Forevermore,   you are victorious
e|--12------12--12---12--|-12--12----|---17------17-17-17-|-17-17--17-17-----|
B|--13------13--13---13--|-13--13----|---17-h-18-18-18-18-|-18-18--20-20-----|
G|--12-h-14-14--14-p-12--|-12--12----|---17------17-17-17-|-17-17--17-17-----|
D|-----------------------|-----------|--------------------|------------------|
A|-----------------------|-----------|--------------------|------------------|
E|-----------------------|-----------|--------------------|------------------|

[Intro]
    C                  C                     Am7        F        C      C
e|--------------------|-----------------------|-----------|----------|-------------|
B|--------------------|-----------------------|-----------|----------|-------------|
G|--12t-------10t-----|--9t------------14t----|---9t------|--10t-----|--9t-----12--|
D|--------------------|-----------------------|-----------|----------|-------------|
A|--------------------|-----------------------|-----------|----------|-------------|
E|--------------------|-----------------------|-----------|----------|-------------|

[Verse 2]
Rest  C                                                   Am7   F              C
    Unmatched in all your wisdom In love and justice you will reign Every knee will bow
Play  C                                                      Am7         F       C
    We bring our expectations Our hope  is  anchored  in your name The name of Jesus
e|--------------|------------|--------------------------|------------------|--------------|
B|--------------|------------|--------------------------|------------------|--------------|
G|--12----------|--10--------|-------9------------------|--------9---------|--10-------9--|
D|--------------|------------|--------------------------|------------------|--------------|
A|--------------|------------|--------------------------|------------------|--------------|
E|--------------|------------|--------------------------|------------------|--------------|
       Am            F          C       G
        We trust  the  name  of   Jesus
e|--------------------|-----------|--------|--15-------|
B|--------------------|-----------|--------|--12-------|
G|--s-s-9-------------|-10--------|--9-----|--12-------|
D|--s-s-10------------|-10--------|--10----|--12-------|
A|--------------------|-----------|--------|-----------|
E|--------------------|-----------|--------|-----------|

[Chorus]
Heavy C                       C/E    F
    You are the only King forever       Almighty God we lift you higher
e|--12------12--12---12--|-12--12-----|----17------17-17-17-|-17--17--17-17--|
B|--13------13--13---13--|-13--13-----|----17-h-18-18-18-18-|-18--18--18-18--|
G|--12-h-14-14--14-p-12--|-12--12-----|----17------17-17-17-|-17--17--17-17--|
D|-----------------------|------------|---------------------|----------------|
A|-----------------------|------------|---------------------|----------------|
E|-----------------------|------------|---------------------|----------------|
    C/G                       C/E   F
    You are the only King forever      Forevermore,   you are victorious
e|--12------12--12---12--|-12--12----|---17------17-17-17-|-17-17--17-17-----|
B|--13------13--13---13--|-13--13----|---17-h-18-18-18-18-|-18-18--20-20-----|
G|--12-h-14-14--14-p-12--|-12--12----|---17------17-17-17-|-17-17--17-17-----|
D|-----------------------|-----------|--------------------|------------------|
A|-----------------------|-----------|--------------------|------------------|
E|-----------------------|-----------|--------------------|------------------|

[Instrumental]
Palm-Mute
    Dm                 C                 G
e|-------------------|------------------|----------------------|
B|-------------------|------------------|----------------------|
G|-------------------|------------------|----------------------|
D|--7t---------------|--5t--------------|----------------------|
A|--5t---------------|--3t--------------|---5t-----------------|
E|-------------------|------------------|---3t-----------------|
Arpeggios
   Dm                 C                 G
e|-------------------|-------------------|------------------|---------------|
B|-------------6-----|--------------5----|-------------3----|---------------|
G|--------7--------7-|--------5--------5-|----------------4-|---------------|
D|-----7-----7-------|-----5-----5-------|--------5---------|---------------|
A|--5----------------|--3----------------|-----5-----5------|---------3-----|
E|-------------------|-------------------|--3---------------|--3-h-5-----5--|


Dm                     C                    G
e|-------------------|-------------------|------------------|
B|-------------6-----|--------------5----|-------------3----|
G|--------7--------7-|--------5--------5-|----------------4-|
D|-----7-----7-------|-----5-----5-------|--------5---------|
A|--5----------------|--3----------------|-----5-----5------|
E|-------------------|-------------------|--3---------------|
   Dm                 C                 G
e|-------------------|-------------------|------------------|---------------|
B|-------------6-----|--------------5----|-------------3----|---------------|
G|--------7--------7-|--------5--------5-|----------------4-|---------------|
D|-----7-----7-------|-----5-----5-------|--------5---------|---------------|
A|--5----------------|--3----------------|-----5-----5------|---------3-----|
E|-------------------|-------------------|--3---------------|--3-h-5-----5--|
   Dm                   C                   G
e|-------------------|-------------------|------------------|
B|-------------6-----|--------------5----|-------------3----|
G|--------7--------7-|--------5--------5-|----------------4-|
D|-----7-----7-------|-----5-----5-------|--------5---------|
A|--5----------------|--3----------------|-----5-----5------|
E|-------------------|-------------------|--3---------------|

[Bridge]
Play heavy Octaves - On Beat
   Dm          C           G
   We lift our banner high  We lift the name of Jesus
   From age to age you reign Your kingdom has no end
   We lift our banner high  We lift the name of Jesus
e|------------|-------------|---------------------------|
B|------------|-------------|---------------------------|
G|--10--------|--9----------|--7------------------------|
D|------------|-------------|---------------------------|
A|--8---------|--7----------|--5------------------------|
E|------------|-------------|---------------------------|
   F           C            G
   From age to age you reign Your kingdom has no end
e|------------|-------------|--------------------------|
B|------------|-------------|--------------------------|
G|--5---------|--9----------|-7------------------------|
D|------------|-------------|--------------------------|
A|--3---------|--7----------|-5------------------------|
E|------------|-------------|--------------------------|


[Down Chorus]
   Am                              F
   You are the only King forever Almighty God we lift you higher
e|---------------------|--------|-----------------------------------|
B|—-----13-------------|-h-15-h-|-13------------------------------|
G|---------------------|--------|-----------------------------------|
D|--7/10---------------|--------|-----------------------------------|
A|---------------------|--------|-----------------------------------|
E|---------------------|--------|-----------------------------------|
   C/E                         F
   You are the only King forever Forevermore, you are victorious
e|----------------------|-------|-------------------------------------|
B|—-8-------------------|-------|-10--------------------------------|
G|--9-------------------|-------|-10----------------------------------|
D|--10------------------|-------|-10----------------------------------|
A|----------------------|-------|-------------------------------------|
E|----------------------|-------|-------------------------------------|


[Chorus]
Heavy  C                        C/E    F
    You are the only King forever       Almighty God we lift you higher
e|--12------12--12---12--|-12--12-----|----17------17-17-17-|-17--17--17-17--|
B|--13------13--13---13--|-13--13-----|----17-h-18-18-18-18-|-18--18--18-18--|
G|--12-h-14-14--14-p-12--|-12--12-----|----17------17-17-17-|-17--17--17-17--|
D|-----------------------|------------|---------------------|----------------|
A|-----------------------|------------|---------------------|----------------|
E|-----------------------|------------|---------------------|----------------|
    C/G                       C/E   F
    You are the only King forever      Forevermore,   you are victorious
e|--12------12--12---12--|-12--12----|---17------17-17-17-|-17-17--17-17-----|
B|--13------13--13---13--|-13--13----|---17-h-18-18-18-18-|-18-18--20-20-----|
G|--12-h-14-14--14-p-12--|-12--12----|---17------17-17-17-|-17-17--17-17-----|
D|-----------------------|-----------|--------------------|------------------|
A|-----------------------|-----------|--------------------|------------------|
E|-----------------------|-----------|--------------------|------------------|

[Ending]

    C                   C                      Am7        F        C
e|---------------------|---------------------|-----------|--------|--------------|
B|---------------------|---------------------|-----------|--------|--------------|
G|--12t-------10t------|-9t------------14t---|----9t-----|---10t--|-----9-9-9-9--|
D|---------------------|---------------------|-----------|--------|--------------|
A|---------------------|---------------------|-----------|--------|--------------|
E|---------------------|---------------------|-----------|--------|--------------|(x2)



************************************

| t  Trill
| /  Slide up
| h  Hammer-on
| p  Pull-off
| s  slide

************************************

            
            
Suggest correction
Creating personal tab
Creating personal tab
You can edit any tab online and save it as your Personal.

You can edit, replace or remove any tab part or add personal notes – all changes will be seen only by you.

Personal tabs can be accessed anytime from any device, even offline.
Learn more »
Give kudos to tab author, rate the tab!
1 2 3 4 5
comments
print report bad tab
guest
You may want to rate the tab now too:
select rating
Wanna post a correction for this tab? Suggest correction