Oops, an error
Loading. Please wait.

The King Is Among Us tab

version 1
version 1

Whole song

Interactive

244 views 1 this week
no commentswrite comment
1 2 3 4 5
3 more votes to show rating
add to favorites
×
Save as Personal and add changes to this tab that will be seen only by you. Learn more ›
×
You can save this tab as Personal to edit and correct it or add notes. All changes will be seen only by you. Learn more »
launch autoscroll
font size
0
reset
how to read this tab
guitar tuner
edit
Autoscroll
slow
fast
+/-
esc
set tempo
stop
Author
Difficulty
This isn't perfect. For starters, it's my attempt to do with one guitar what Elevation 
does with multiples.
Second, there are a couple of nuances that I took a little artistic liberty with (see the bridge double
walk up) Lastly, it's an export of GuitarPro tab, so some of the directional notation 
got lost in translation.
I'm hoping you can work with it. If you have trouble, send me an e-mail (colin at 
colindyermusic) and I'll
try to help.

Title: The King is Among Us
Artist: Elevation Worship
Album: Wake Up The Wonder
Tempo = 76
Electric Guitar

Legend
L - tied note
x - dead note
h - hammer on/pull off
b - bend
s - slide
~ - vibrato
g - ghost note
> - accentuated note
t - trill
M - palm mute
. - staccato
P - popping (bass)
S - slapping (bass)
+ - tapping
W - wide vibrato
< - fade in
w - whammy bar
= - tremolo picking
v - brush up
^ - brush down
V - pick stroke up
n - pick stroke down

     <
E ||----------------------------------------------------------------------------|
B ||----------------------------------------------------------------------------|
G ||o9--5h-7--9--5h-7--9--5h-7--9--5h-7--9--5h-7--9--5h-7--9--5h-7--9--5h-7--9--|
D ||o---------------------------------------------------------------------------|
A ||----------------------------------------------------------------------------|
E ||----------------------------------------------------------------------------|


-----------------------|
-----------------------|
5h-7--9--5h-7--9--5h---|
-----------------------|
-----------------------|
-----------------------|


--------------------------------------------------------------------------------|
--------------------------------------------------------------------------------|
--7--9--5h-7L-7-----------------------------------------------------------------|
--------------------------------------------------------------------------------|
--------------------------------------------------------------------------------|
--------------------------------------------------------------------------------|


--------------------|
--------------------|
--------------------|
--------------------|
--------------------|
--------------------|

  <
---------------------------------------------------------------------------------|
--17-13h15-17-13h15-17-13h15-17-13h15-17-13h15-17-13h15-17-13h15-17-13h15-17-13--|h
---------------------------------------------------------------------------------|
---------------------------------------------------------------------------------|
---------------------------------------------------------------------------------|
---------------------------------------------------------------------------------|


--------------------|
15-17-13h15-17-13h--|
--------------------|
--------------------|
--------------------|
--------------------|


--------------------------------------------------------------------------------|
--15-17-13h15L15----------------------------------------------------------------|
--------------------------------------------------------------------------------|
--------------------------------------------------------------------------------|
--------------------------------------------------------------------------------|
--------------------------------------------------------------------------------|


-------------------||-------|
-------------------||-------|
------------------o||-------|
------------------o||-------|
-------------------||-------|
-------------------||-------|

  <
---------------------------------------------------------------------------------|
--17-13h15-17-13h15-17-13h15-17-13h15-17-13h15-17-13h15-17-13h15-17-13h15-17-13--|h
---------------------------------------------------------------------------------|
---------------------------------------------------------------------------------|
---------------------------------------------------------------------------------|
---------------------------------------------------------------------------------|


--------------------|
15-17-13h15-17-13h--|
--------------------|
--------------------|
--------------------|
--------------------|


--------------------------------------------------------------------------------|
--15-17-13h15L15----------------------------------------------------------------|
--------------------------------------------------------------------------------|
--------------------------------------------------------------------------------|
--------------------------------------------------------------------------------|
--------------------------------------------------------------------------------|

                                       <               <
--------------------|-------|-------|-------|-------|-------|-------|
--------------------|-------|-------|--10L--|--10---|--12---|-------|
--------------------|-------|-------|-------|-------|-------|-------|
--------------------|-------|-------|--10---|-------|--12---|-------|
--------------------|-------|-------|-------|-------|-------|-------|
--------------------|-------|-------|-------|-------|-------|-------|


----------------------------|----------------------------|
-----8-----8L-8-------------|-----8-----8L-8-------------|
--9-----9-------------------|--9s----9-------------------|
----------------------------|----------------------------|
----------------------------|----------------------------|
----------------------------|----------------------------|


----------------------------------------------------|
--6-----------5-------------------------------------|
--------------------------5--------4----------------|
--------5-----------5-----------------------5s------|
----------------------------------------------------|
----------------------------------------------------|


----------------------------|----------------------------|
--------10----10------------|-----8-----8L-8-------------|
-----10----10-10------------|--9-----9-------------------|
--7-------------------------|----------------------------|
----------------------------|----------------------------|
----------------------------|----------------------------|


----------------------------|
-----8-----8L-8-------------|
--9-----9-------------------|
----------------------------|
----------------------------|
----------------------------|


----------------------------------------------------|
--6-----------5-------------------------------------|
--------------------------5--------4----------------|
--------5-----------5-----------------------5s------|
----------------------------------------------------|
----------------------------------------------------|


----------------------------|-------|----------------|-------|----------------|
--------10----10------------|-------|-----5s-8L------|--8----|-----8s-5L------|
-----10----10-10------------|-------|----------------|-------|----------------|
--7-------------------------|-------|----------------|-------|----------------|
----------------------------|-------|----------------|-------|----------------|
----------------------------|-------|----------------|-------|----------------|


----------------|----------------|----------------|----------------|
--5--5s-3-------|--6s-5L---------|--5--5s-8L------|--8--8s-5L------|
----------------|----------------|----------------|----------------|
----------------|----------------|----------------|----------------|
----------------|----------------|----------------|----------------|
----------------|----------------|----------------|----------------|

                   <
----------------|-------|-------|-------|-------||---------------------------|
--5--5s-3-------|-------|-------|-------|-------||----8-----8L-8-------------|
----------------|--10L--|--10---|--12L--|--12---||o9-----9-------------------|
----------------|--10L--|--10---|--12L--|--12---||o--------------------------|
----------------|-------|-------|-------|-------||---------------------------|
----------------|-------|-------|-------|-------||---------------------------|


----------------------------|
-----8-----8L-8-------------|
--9s----9-------------------|
----------------------------|
----------------------------|
----------------------------|


----------------------------------------------------|
--6-----------5-------------------------------------|
--------------------------5--------4----------------|
--------5-----------5-----------------------5s------|
----------------------------------------------------|
----------------------------------------------------|


----------------------------|----------------------------|
--------10----10------------|-----8-----8L-8-------------|
-----10----10-10------------|--9-----9-------------------|
--7-------------------------|----------------------------|
----------------------------|----------------------------|
----------------------------|----------------------------|


----------------------------|
-----8-----8L-8-------------|
--9-----9-------------------|
----------------------------|
----------------------------|
----------------------------|


----------------------------------------------------|
--6-----------5-------------------------------------|
--------------------------5--------4----------------|
--------5-----------5-----------------------5s------|
----------------------------------------------------|
----------------------------------------------------|

                               <
---------------------------|||------|-------|-------|--5----|
--------10-10-10-----------|||------|--5----|--8----|--5----|
-----10----10-10----------o|||o5~---|-------|--7----|--5----|
--7-----------------------o|||o-----|--5----|-------|-------|
---------------------------|||------|-------|-------|-------|
---------------------------|||------|-------|-------|-------|


--------------------------------------------x--x---|||
--6-----------------------------------------x--x---|||
--5-----------------------------------------x--x--o|||
--------------------------------------------x--x--o|||
--------------------------------------------x--x---|||
--------------------------------------------x--x---|||


---------------------------|----------------------------|----------------|
-5--5--5--5--5--5--5--5----|--8--8--8--8--8--8--8--8----|--6--5----------|
o5--5--5--5--5--5--5--5----|--7--7--7--7--7--7--7--7----|--------7--5----|
o5--5--5--5--5--5--5--5----|--5--5--5--5--5--5--5--5----|----------------|
---------------------------|----------------------------|----------------|
---------------------------|----------------------------|----------------|


--5--5--5--5--5--5--5--5----|
--6--6--6--6--6--6--6--6----|
--5--5--5--5--5--5--5--5----|
----------------------------|
----------------------------|
----------------------------|

                                W
----------------------------------------------------|
--5-----5-----5-----5-----------8-------------------|
--5-----5-----5-----5-----5--7----------------------|
--5-----5-----5-----5-------------------------------|
----------------------------------------------------|
----------------------------------------------------|

                                W
--5-----5-----5-----5-------------------------------|----------------|
--6-----6-----6-----6-----------10------------------|--6--5----------|
--5-----5-----5-----5-----5--7----------------------|--------7--5----|
----------------------------------------------------|----------------|
----------------------------------------------------|----------------|
----------------------------------------------------|----------------|


--5-----5-----5-----5-----5-----------------x--x---||
--6-----6-----6-----6-----5-----------------x--x---||
--5-----5-----5-----5-----5-----------------x--x--o||
--------------------------------------------x--x--o||
--------------------------------------------x--x---||
--------------------------------------------x--x---||


--5--5--5--5----------------|--5--5--5--5--5--5--5--5----|----------------|
--5--5--5--5--8--8--8--8----|--6--6--6--6--6--6--6--6----|--6--5----------|
--5--5--5--5--7--7--7--7----|--5--5--5--5--5--5--5--5----|--------7--5----|
--------------5--5--5--5----|----------------------------|----------------|
----------------------------|----------------------------|----------------|
----------------------------|----------------------------|----------------|


--5--5--5--5--5--5--5--5----|
--6--6--6--6--6--6--6--6----|
--5--5--5--5--5--5--5--5----|
----------------------------|
----------------------------|
----------------------------|

                                W
----------------------------------------------------|
--5-----5-----5-----5-----------8-------------------|
--5-----5-----5-----5-----5--7----------------------|
--5-----5-----5-----5-------------------------------|
----------------------------------------------------|
----------------------------------------------------|

                                W                                       W
--5-----5-----5-----5-------------------------------|----------------|-------|
--6-----6-----6-----6-----------10------------------|--6--5----------|--6----|
--5-----5-----5-----5-----5--7----------------------|--------7--5----|--5----|
----------------------------------------------------|----------------|-------|
----------------------------------------------------|----------------|-------|
----------------------------------------------------|----------------|-------|

                  <  <       <       <       <       <       <       <
-------|-------|----------|-------|-------|--12---|-------|--12---|-------|
-------|-------|--13-12---|--10---|--13---|--13---|--13---|--13---|--13---|
-------|-------|-----12---|--10---|--12---|-------|--12---|-------|--12---|
-------|-------|----------|-------|-------|-------|-------|-------|-------|
-------|-------|----------|-------|-------|-------|-------|-------|-------|
-------|-------|----------|-------|-------|-------|-------|-------|-------|

  <
--12---||---------------------------------------------------|
--13---||---------------------------------------------------|
-------||o--------------------------------------------------|
-------||o--------------------------------------------------|
-------||-3M-3M-3M-3M-3M-3M-3M-3M-3M-3M-3M-3M-3M-3M-3M-3M---|
-------||---------------------------------------------------|


----------------------------------------------------|
----------------------------------------------------|
----------------------------------------------------|
----------------------------------------------------|
--3M-3M-3M-3M-3M-3M-3M-3M-3M-3M-3M-3M-3M-3M-3M-3M---|
----------------------------------------------------|


----------------------------------------------------|
----------------------------------------------------|
----------------------------------------------------|
----------------------------------------------------|
--3M-3M-3M-3M-3M-3M-3M-3M-3M-3M-3M-3M-3M-3M-3M-3M---|
----------------------------------------------------|


----------------------------------------------------|
-----------------------------------1h-0-------------|
-----------------------------------------0----------|
----------------------------------------------------|
--3M-3M-3M-3M-3M-3M-3M-3M-3M-3M-3M----------2b------|
----------------------------------------------------|


---------------------------------------------------||-------|-------|-------|
---------------------------------------------------||-------|-------|-------|
--------------------------------------------------o||-------|-------|-------|
--------------------------------------------------o||-------|-------|-------|
-----0--------------------3M-3M-3M-3M-3M-3M-3M-3M--||-------|-------|-------|
--3------------------------------------------------||-------|-------|-------|

                          <
-------|-------|-------|-------|-------|-------|--12-15---------------------||
--13L--|--13L--|--13---|--13L--|--13L--|--13---|----------------------------||
-------|-------|-------|--12L--|--12L--|--12---|----------------------------||
-------|-------|-------|-------|-------|-------|----------------------------||
-------|-------|-------|-------|-------|-------|----------------------------||
-------|-------|-------|-------|-------|-------|----------------------------||

 <       <
------|--12--|||
-13---|--13--|||
o12---|-----o|||
o-----|-----o|||
------|------|||
------|------|||

            
            
Suggest correction
Creating personal tab
Creating personal tab
You can edit any tab online and save it as your Personal.

You can edit, replace or remove any tab part or add personal notes – all changes will be seen only by you.

Personal tabs can be accessed anytime from any device, even offline.
Learn more »
Give kudos to tab author, rate the tab!
1 2 3 4 5
comments
print report bad tab
guest
You may want to rate the tab now too:
select rating
Wanna post a correction for this tab? Suggest correction