Oops, an error
Loading. Please wait.

Unstoppable God Bass Tab

version 2
version 2

Whole song

Interactive

28 views 1 this week
no commentswrite comment
1 2 3 4 5
3 more votes to show rating
add to favorites
launch autoscroll
font size
0
reset
guitar tuner
Autoscroll
slow
fast
+/-
esc
set tempo
stop
Help us to improve Ultimate-Guitar.com Take our survey!
×
Author
Difficulty
intermediate
(Tempo: 132)
(Time Signature: 4/4)

[Intro]

  1 + 2  + 3  +  4  +
G|---------------------|----------------|---------------------|----------------|
D|---------------------|----------------|---------------------|----------------|
A|9-9-9-11-11-11-11-11-|7-7-7-7-7-7-7-7-|9-9-9-11-11-11-11-11-|7-7-7-7-7-7-7-7-|
E|---------------------|----------------|---------------------|----------------|

G|---------------------|----------------|---------------------|----------------|
D|---------------------|----------------|---------------------|----------------|
A|9-9-9-11-11-11-11-11-|7-7-7-7-7-7-7-7-|9-9-9-11-11-11-11-11-|7-7-7-7-7-7-7-7-|
E|---------------------|----------------|---------------------|----------------|


[Verse 1]

  1 + 2  + 3  +  4  +
G|---------------------|----------------|---------------------|----------------|
D|---------------------|----------------|---------------------|----------------|
A|9-----11-------------|7---------------|9-----11-------------|7---------------|
E|---------------------|----------------|---------------------|----------------|

G|---------------------|----------------|---------------------|----------------|
D|---------------------|----------------|---------------------|----------------|
A|9-----11-------------|7---------------|9-----11-------------|7---------------|
E|---------------------|----------------|---------------------|----------------|


[Verse 2:]

  1 + 2 +  3  +  4  +
G|---------------------|----------------|---------------------|----------------|
D|---------------------|----------------|---------------------|----------------|
A|9-9-9-11-11-11-11-11-|7-7-7-7-7-7-7-7-|9-9-9-11-11-11-11-11-|7-7-7-7-7-7-7-7-|
E|---------------------|----------------|---------------------|----------------|

G|---------------------|----------------|---------------------|------------------|
D|---------------------|----------------|---------------------|------------------|
A|9-9-9-11-11-11-11-11-|7-7-7-7-7-7-7-7-|9-9-9-11-11-11-11-11-|7-7-7-7-7-7-7-7\2-|
E|---------------------|----------------|---------------------|------------------|


[Chorus 1]

  1 + 2 + 3 + 4 +
G|----------------|----------------|----------------|----------------|
D|----------------|----------------|----------------|----------------|
A|2---2---2-2-2-2-|2-2-4-4-4-4-4-4-|----------------|----------------|
E|----------------|----------------|4-4-4-4-4-4-4-4-|4-4-4-4-0-0-0-0-|

G|----------------|----------------|----------------|----------------|
D|----------------|----------------|----------------|----------------|
A|2-2-2-2-2-2-2-2-|2-2-4-4-4-4-4-4-|----------------|----------------|
E|----------------|----------------|4-4-4-4-4-4-4-4-|4-4-4-4-0-0-0-0-|


[Verse 3]

  1 + 2 +  3  +  4  +
G|---------------------|----------------|---------------------|----------------|
D|---------------------|----------------|---------------------|----------------|
A|---------------------|----------------|9-9-9-11-11-11-11-11-|7-7-7-7-7-7-7-7-|
E|---------------------|----------------|---------------------|----------------|

G|---------------------|----------------|---------------------|----------------|
D|---------------------|----------------|---------------------|----------------|
A|9-9-9-11-11-11-11-11-|7-7-7-7-7-7-7-7-|9-9-9-11-11-11-11-11-|7-7-7-7-7-7-7-7-|
E|---------------------|----------------|---------------------|----------------|


[Verse 4]

  1 + 2 + 3 + 4 +
G|----------------|----------------|----------------|----------------|
D|----------------|----------------|----------------|----------------|
A|----------------|----------------|----------------|----------------|
E|2-2-2-4-4-4-4-4-|0-0-0-0-0-0-0-0-|2-2-2-4-4-4-4-4-|0-0-0-0-0-0-0-0-|

G|----------------|----------------|----------------|----------------|
D|----------------|----------------|----------------|----------------|
A|----------------|----------------|----------------|----------------|
E|2-2-2-4-4-4-4-4-|0-0-0-0-0-0-0-0-|2-2-2-4-4-4-4-4-|0-0-0-0-0-0-0-0-|

(Open E from previous measure is still ringing out in this measure)
G|----------------|
D|----------------|
A|----------------|
E|----------------|


[Chorus 2]

  1 + 2 + 3 + 4 +
G|----------------|----------------|----------------|----------------|
D|----------------|----------------|----------------|----------------|
A|2---2---2-2-2-2-|2-2-4-4-4-4-4-4-|----------------|----------------|
E|----------------|----------------|4-4-4-4-4-4-4-4-|4-4-4-4-0-0-0-0-|

G|----------------|----------------|----------------|----------------|
D|----------------|----------------|----------------|----------------|
A|2-2-2-2-2-2-2-2-|2-2-4-4-4-4-4-4-|----------------|----------------|
E|----------------|----------------|4-4-4-4-4-4-4-4-|4-4-4-4-0-0-0-0-|

G|----------------|------------6-8-|6-4-------------|----------------|
D|----------------|----------6-----|----6-6-6-6-6-6-|6-6-6-6---------|
A|2-2-2-2-2-2-2-2-|2-2-4-4-4-------|----------------|----------------|
E|----------------|----------------|----------------|--------0-0-0-0-|

G|----------------|----------------|----------------|----------------|
D|----------------|----------------|----------------|----------------|
A|2-2-2-2-2-2-2-2-|2-2-4-4-4-4-4-4-|----------------|----------------|
E|----------------|----------------|4-4-4-4-4-4-4-4-|4-4-4-4-0-0-0-0-|


[Breakdown]

(Bass is out in this section)
G|----------------|
D|----------------|
A|----------------|
E|----------------|


[Bridge 1]

(Bass is out in this section)
G|----------------|
D|----------------|
A|----------------|
E|----------------|



[Bridge 2] 

  1 + 2 + 3 + 4 +
G|----------------|----------------|----------------|----------------|
D|----------------|--------1-------|2---------------|--------4-------|
A|2---------------|----------------|----------------|----------------|
E|----------------|----------------|----------------|----------------|

G|----------------|----------------|----------------|----------------|
D|6---------------|----------------|2---------------|----------------|
A|----------------|--------2-------|----------------|----------------|
E|----------------|----------------|----------------|----------------|


[Bridge 3]

  1 + 2 + 3 + 4 +
G|----------------|----------------|----------------|----------------|
D|----------------|--------1-1-1-1-|2-2-2-2-2-2-2-2-|2-2-2-2-4-4-4-4-|
A|2-2-2-2-2-2-2-2-|2-2-2-2---------|----------------|----------------|
E|----------------|----------------|----------------|----------------|

G|----------------|----------------|----------------|----------------|
D|6-6-6-6-6-6-6-6-|6-6-6-6---------|2-2-2-2-2-2-2-2-|2-2-2-2-2-2-2-2-|
A|----------------|--------2-2-2-2-|----------------|----------------|
E|----------------|----------------|----------------|----------------|


[Bridge 4]

  1 + 2 + 3 + 4 +
G|----------------|----------------|----------------|----------------|
D|----------------|2-2-2-2-1-1-1-1-|2-2-2-2-2-2-2-2-|2-2-2-2-4-4-4-4-|
A|2-2-2-2-2-2-2-2-|----------------|----------------|----------------|
E|----------------|----------------|----------------|----------------|

G|----------------|----------------|----------------|----------------|
D|----------------|----------------|----------------|----------------|
A|----------------|--------2-2-2-2-|----------------|----------------|
E|4-4-4-4-4-4-4-4-|4-4-4-4---------|0-0-0-0-0-0-0-0-|0-0-0-0-0-0-0-0-|


[Instrumental]

  1 + 2 + 3 + 4 +
G|----------------|----------------|----------------|----------------|
D|----------------|--------1-1-1-1-|2-2-2-2-2-2-2-2-|2-2-2-2-4-4-4-4-|
A|2-2-2-2-2-2-2-2-|2-2-2-2---------|----------------|----------------|
E|----------------|----------------|----------------|----------------|

G|----------------|----------------|----------------|----------------|
D|6-6-6-6-6-6-6-6-|6-6-6-6---------|2-2-2-2-2-2-2-2-|2-2-2-2-2-2-2-2-|
A|----------------|--------2-2-2-2-|----------------|----------------|
E|----------------|----------------|----------------|----------------|


[Chorus 3]

  1 + 2 + 3 + 4 +
G|----------------|----------------|----------------|----------------|
D|----------------|----------------|----------------|----------------|
A|2---2---2-2-2-2-|2-2-4-4-4-4-4-4-|----------------|----------------|
E|----------------|----------------|4-4-4-4-4-4-4-4-|4-4-4-4-0-0-0-0-|

G|----------------|----------------|----------------|----------------|
D|----------------|----------------|----------------|----------------|
A|2-2-2-2-2-2-2-2-|2-2-4-4-4-4-4-4-|----------------|----------------|
E|----------------|----------------|4-4-4-4-4-4-4-4-|4-4-4-4-0-0-0-0-|

G|----------------|------------6-8-|6-4-------------|----------------|
D|----------------|----------6-----|----6-6-6-6-6-6-|6-6-6-6---------|
A|2-2-2-2-2-2-2-2-|2-2-4-4-4-------|----------------|----------------|
E|----------------|----------------|----------------|--------0-0-0-0-|

G|----------------|----------------|----------------|----------------|
D|----------------|----------------|----------------|----------------|
A|2-2-2-2-2-2-2-2-|2-2-4-4-4-4-4-4-|----------------|----------------|
E|----------------|----------------|4-4-4-4-4-4-4-4-|4-4-4-4-0-0-0-0-|


[Ending]

  1 + 2 + 3 + 4 +
G|----------------|----------------|----------------|----------------|
D|----------------|----------------|----------------|----------------|
A|2-2-2-2-2-2-2-2-|2-2-4-4-4-4-4-4-|----------------|----------------|
E|----------------|----------------|4-4-4-4-4-4-4-4-|4-4-4-4-0-0-0-0-|

G|----------------|----------------|----------------|----------------|
D|----------------|----------------|----------------|----------------|
A|2-2-2-2-2-2-2-2-|2-2-4-4-4-4-4-4-|----------------|----------------|
E|----------------|----------------|4---------------|----------------|


************************************

| \   Slide down

************************************
Suggest correction
Give kudos to tab author, rate the tab!
1 2 3 4 5
comments
print report bad tab
guest
You may want to rate the tab now too:
select rating
Wanna post a correction for this tab? Suggest correction