Oops, an error
Loading. Please wait.

Myspace tab

version 1
version 1

Whole song

5,588 views 1 this week
11 commentsread comments
1 2 3 4 5
x 7
add to favorites
×
Save as Personal and add changes to this tab that will be seen only by you. Learn more ›
×
You can save this tab as Personal to edit and correct it or add notes. All changes will be seen only by you. Learn more »
launch autoscroll
font size
0
reset
how to read this tab
guitar tuner
edit
Autoscroll
slow
fast
+/-
esc
set tempo
stop
Author
this is a really awesome pop punk band from s.c. my home state, i've seen them play live 
couple times and they was great, this song is pretty simple but really catchy, and it 
tells how gay myspace is! how awesome? lol

http://www.eleventysevenrock.com/

tuning: standard

note:
*= palm mute
h= hammer on
new intro thanks to Treason Within for providing. i kinda changed it though
e-----------------------------------------------|
b-----------------------------------------------|
g-----------------------------------------------|
d-----4-----4------------4-------2--------------|
a-55----5-55--5--4h5-5------5-------5-4h5-5-----|
e----------------------33------55---------------|
  **      **           **      **

play that like 4 times


verse
e-------------------------------------------------------|
b-------------------------------------------------------|
g-777777777-----------------77777777--------------------|
d-7777777777-5555-9-7-4-555-777777777-555555-777777-----|
a-5555555557-5555-9-7-4-555-555555557-555555-777777-----|
e----------5-3333-7-5-2-333---------5-333333-555555-----|


prechorus pt.1 - x2
e-------------------------------|
b-------------------------------|
g-------------------------------|
d-4444-5555-7777777777777-------|
a-4444-5555-7777777777777-------|
e-2222-3333-5555555555555-------|
  **** ****

prechorus pt.2
e----------------------------------------|
b----------------------------------------|
g----------------------------------------|
d-7-4-22222222224-55555555555555-7-------|
a-7-4-22222222224-55555555555555-7-------|
e-5-2-00000000002-33333333333333-5-------|
                                 *
chorus
e-----------------------------------------------------------------------|
b-----------------------------------------------------------------------|
g-7777777---------------------------------------------------------------|
d-77777779-77777777-55555555-7777777-99999999-77777777-5555555-7777777--|
a-55555559-77777777-55555555-7777777-99999999-77777777-5555555-7777777--|
e--------7-55555555-33333333-5555555-77777777-55555555-3333333-5555555--|
                                     ******** ********

intro again
verse

bridge
e-----------------------------------------------|
b-----------------------------------------------|
g-----------------------------------------------|
d-999999999-55555555-9999999999-777777777-------|
a-999999999-55555555-9999999999-777777777-------|
e-777777777-33333333-7777777777-555555555-------|
x2

clean part
this part im not 100% sure about but it sounds good either way
e------------------------------------|
b-0-0-0-0-2-2-2-2-3-3-3-3-5-5-5-5----|
g--4-4-4-4-4-4-4-4-4-4-4-4-4-4-4-----|
d------------------------------------|
a------------------------------------|
e------------------------------------|

intro
chorus
intro without last note

            
            
Suggest correction
Creating personal tab
Creating personal tab
You can edit any tab online and save it as your Personal.

You can edit, replace or remove any tab part or add personal notes – all changes will be seen only by you.

Personal tabs can be accessed anytime from any device, even offline.
Learn more »
comments
print report bad tab
11 comments total. Showing first comments.
0 reply
Treason Within 10 Jun 14, 2006 09:25 AM

i love this band too it has a great sound to it, but the intro goes somthing more liek this..

e------------------------------------------|
b------------------------------------------|
g------------------------------------------|
d-----4-----4----------4------4------------|
a-55---5-55--5--4h5-----5------5-4h5-------|
e-------------------33-----55--------------|
** ** ** **

0 reply
punkrockdude2 219 Jun 14, 2006 09:25 AM

sweet tab man..been lookin for it everywhere. love the intro

0 reply
rockdude_2008 71 Jun 14, 2006 09:26 AM

o well ,i thought i did good :(

guest
You may want to rate the tab now too:
select rating
Wanna post a correction for this tab? Suggest correction