Oops, an error
Loading. Please wait.

Lilium Bass Tab

version 1
version 1

Whole song

11,537 views 3 this week
no commentswrite comment
1 2 3 4 5
excellent!
x 7
add to favorites
launch autoscroll
font size
0
reset
guitar tuner
Tab Pro tools
  • play this tab
  • loop segment
  • change instrument
  • show fretboard
  • metronome
×
Best way to learn
"Lilium"
Autoscroll
slow
fast
+/-
esc
set tempo
stop
I (0:02)
II (0:13)
I (0:27)
II  (0:36)
III (0:52)
IV (1:00)
III (1:05)
IV (1:11)
V  (1:18)
IV (1:26)


I 

G------9----------------9-------7------------|
D----7---9--10-10-----7---9--10---10--7------|
A--------------------------------------------|
E--------------------------------------------|


II

G--------------------------------7-----------|
D----9--------7-------------9-10---10-9------|
A------9-7-9----7-6-7-9-11-------------------|
E--------------------------------------------|


III

G-------7-9--7-10-9-7------------------------|
D----10---------------10-9-------------------|
A--------------------------------------------|
E--------------------------------------------|

IV

G-------7-9--12-11-7-9-----------------------|
D----10--------------------------------------|
A--------------------------------------------|
E--------------------------------------------|

V

G---14--12-10-9---11-7-9---------------------|
D--------------------------------------------|
A--------------------------------------------|
E--------------------------------------------|

[Nana took this from a guitar tablature and turned it into Bass tabs,]
comments
print report bad tab
I want to post or [tab]
guest
You may want to rate the tab now too:
select rating
Please do not post tabs as comments. Select "correction" instead!