Oops, an error
Loading. Please wait.

Im Gonna Getcha Back Bass Tab

729 views 1 this week
no commentswrite comment
1 2 3 4 5
excellent!
x 1
add to favorites
launch autoscroll
font size
0
reset
guitar tuner
Tab Pro tools
  • play this tab
  • loop segment
  • change instrument
  • show fretboard
  • metronome
Autoscroll
slow
fast
+/-
esc
set tempo
stop
Contributor
yea baby!

G------------------------|---------------------------|
D------------------6--6--|---------------------------|
A--6h8-6h8-6h8p6-8-------|--6h8-6h8-6h8p6------------|
E------------------------|----------------8--6--4----|

G------------------------|---------------------------|
D------------------6--6--|-----------------6--6------|
A--6h8-6h8-6h8p6-8-------|--6h8-6h8-6h8p6------------|
E------------------------|---------------------------|

Please rate/comment

Thank you, much love, that's why they call me
A. Taylor

http://www.myspace.com/elipaperboyreed
comments
We did not receive enough feedback on this tab! Please rate:
print report bad tab
1 2 3 4 5
I want to post or [tab]
guest
You may want to rate the tab now too:
select rating
Please do not post tabs as comments. Select "correction" instead!