Oops, an error
Loading. Please wait.

Where To Start Tab

4 views 1 this week
no commentswrite comment
1 2 3 4 5
3 more votes to show rating
add to favorites
launch autoscroll
font size
0
reset
how to read this tab
guitar tuner
Autoscroll
slow
fast
+/-
esc
set tempo
stop
Help us to improve Ultimate-Guitar.com Take our survey!
×
Author
Capo
5th fret
Capo på 5:e bandet 
 
 [Intro]
   D     G/B               Cadd9       G
e|---2---2-2-2-----3-3-----3-3-----3---3-3-3-----3-3---3-3-3---|
B|---3---3-3-3-----3-3-----3-3-----3---3-3-3-----3-3---3-3-3---|
G|---2---2-2-2-----0-0-----0-0-----0---0-0-0-----0-0---0-0-0---|
D|-0-------0---------------0-0-----2-----2-------0-------0-----|
A|---------------2-----0h2-------3---------------2-------2-----|
E|---------------------------------------------3---------------|

 Resten av låten
     D   G/B             Cadd9      G
e|---2---2-2-2-----3-3---3-3-3------3-3---3-3-3-----3-3-----3-3-3---|
B|---3---3-3-3-----3-3---3-3-3------3-3---3-3-3-----3-3-----3-3-3---|
G|---2---2-2-2-----0-0---0-0-0------0-0---0-0-0-----0-0-----0-0-0---|
D|-0-------0-------0-------0----0h2---------2-------0---------0-----|
A|---------------2--------------3-------------------2---0h2---2-----|
E|------------------------------------------------3-----------------|

 Sen avslutas det med dessa ackord 
   D   G/B G   Cadd9
e|-2---3---3---3-|
B|-3---3---3---3-|
G|-2---0---0---0-|
D|-0---0---0---2-|
A|-----2---2---3-|
E|---------3-----|


************************************

| h  Hammer-on

************************************

[Verse 1]
She makes herself some coffee filled with sugar, milk and truth.
It’s hard to dislike somebody who really likes you.
She’s alone, as she strums her guitar she remembers all the things you’ve said and done.
All her lies are gone, everything from now on will come to matter more.
 
[Chorus]
She says:  Hey, do you mind me asking for a part 
of your love of your world, of your bed, of your heart.
Hey, do you mind telling me where to start.

[Verse 2]
She steps into the shower, it’s been a lonely day. 
She was supposed to call me and drop a few words but the hours ran away. 
And the night is a friend of hers now that she finally got her bad dreams ripped out of sight. 
When the moon is out she sails on to you, you know you’ll come to matter now.

[Chorus]
She says:  Hey, do you mind me asking for a part 
of your love of your world, of your bed, of your heart.
Hey, do you mind telling me where to start.
Suggest correction
Give kudos to tab author, rate the tab!
1 2 3 4 5
comments
print report bad tab
guest
You may want to rate the tab now too:
select rating
Wanna post a correction for this tab? Suggest correction