Oops, an error
Loading. Please wait.

Shpalman bass

version 1
version 1

Whole song

Interactive

3,934 views 1 this week
no commentswrite comment
1 2 3 4 5
2 more votes to show rating
add to favorites
×
Save as Personal and add changes to this tab that will be seen only by you. Learn more ›
×
You can save this tab as Personal to edit and correct it or add notes. All changes will be seen only by you. Learn more »
launch autoscroll
font size
0
reset
guitar tuner
backing track
0:00
0:00
edit
Autoscroll
slow
fast
+/-
esc
set tempo
stop
Author
Difficulty
                                  ELIO E LE STORIE TESE



                                        SHPALMAN

                                              

                        tabbed By Guido Venditti (minichic@hotmail.it)

VERSO 1



20 battute di pausa



  E E E E E E E E   E E E E E E E E   E E E E E E E E   E E E E E E E E
G|-----------------|-----------------|-----------------|--------------------|
D|---------------2-|-3-3-3-3-3-3-3-3-|-----------------|--------------------|
A|-0-0-0-0-0-0-0---|-----------------|-3-3-3-3-3-3-3-3-|--------------------|
E|-----------------|-----------------|-----------------|-5-5-5-5-5-5-5-5----|
B|-----------------|-----------------|-----------------|--------------------|

  E E E E E E E E   E E E E E E E E   E E E E E E E E
|-----------------|-----------------|-----------------||
|-----------------|-----------------|-----------------||
|-----------------|-3-3-3-3-3-3-3-3-|-3-3-3-3-3-3-3-3-||
|-1-1-1-1-1-1-1-1-|-----------------|-----------------||
|-----------------|-----------------|-----------------||


BRIDGE

  E E E E E E E E   +Q. E E E E E   E E E E E E E E   +Q. E E E E E
|-4h5-------------|---------------|-4-5-------------|------------------|
|-----4h5-5-5-5-3-|-(3)-----------|-----4-5-5-5-5-3-|-(3)--------------|
|-----------------|-----3---------|-----------------|-----3------------|
|-----------------|-------1-1-3-1-|-----------------|-------1-1-3-1----|
|-----------------|---------------|-----------------|------------------|


  E E E E E E E E   E E E E E E E E   E E E E E E E E
|-----------------|-----------------|-----------------|
|-------5-3-3---3-|-----------------|-----------------|
|-----5-------3---|-6-6-------------|-6-6-----------6-|
|-3-3-------------|-----6---------6-|-----6-------6---|
|-----------------|-------4---4-----|-------4---4-----|


  E  E  E  E  E  E  E  E    H.      Q
|------------------------|-------------||
|-0S12-12-12-12-12-12-12-|-12\---------||
|------------------------|-------------||
|------------------------|-------------||
|------------------------|-------------||


RITORNELLO

    E E E E E E E E   E E E E E E E E   E E E E E E E E   E E E E E E E E
||------------------|-----------------|-----------------|------------------|
||o-----------------|-4-4-4-4-4-4-4-4-|-----------------|------------------|
||--3-3-3-3-3-3-3-3-|-----------------|-7-7-7-7---------|-5-5-5-5-5-5-5-5--|
||o-----------------|-----------------|---------5-5-5-5-|------------------|
||------------------|-----------------|-----------------|------------------|


  E E E E E E E E   E E E E E E E E   E E E E E E E E   E E E E E E E E
|-----------------|-----------------|-----------------|------------------||
|-----------------|-----------------|-----------------|-5-5-5-5-5-5-5-5-o||
|-----------------|-2-2-2-2-2-2-2-2-|-3-3-3-3-5-5-5-5-|------------------||
|-3-3-3-3-3-3-3-3-|-----------------|-----------------|-----------------o||
|-----------------|-----------------|-----------------|------------------||


PRE VERSO

  Q.   E E E E E   W          H Q E        E
|----------4-5---|----------|-----------------|
|------3-5-------|----------|-------------10\-|
|--------------3-|----------|-----------------|
|-1--------------|----------|-----------------|
|----------------|----------|-----------------|


VERSO 2

  E E E E E E E E   E E E E E E E E   E E E E E E E E
|-----------------|-----------------|-----------------|
|-----------------|---------2-----2-|-3-3---3---3-3-3-|
|-3-3-3-3-3-3-3-3-|-0-0-2-3---2-3---|-----------------|
|-----------------|-----------------|-----------------|
|-----------------|-----------------|-----------------|


  E E E E E   E  E  E    E  E  E  E  E  E  E  E
|---------------------|-------------------------||
|-----------/10-10-10-|-10-10-10-10-10-10-10-10-||
|-3-3-3-3-3-----------|-------------------------||
|---------------------|-------------------------||
|---------------------|-------------------------||


BRIDGE

  E E E E E E E E   +Q.   E E E E E   E E E E E E E E   +Q.   E E E E E
|-4h5-------------|-----------------|-4-5-------------|-----------------|
|-----4h5-5-5-5-3-|-(3)-------------|-----4-5-5-5-5-3-|-(3)-------------|
|-----------------|-------3---------|-----------------|-------3---------|
|-----------------|---------1-1-3-1-|-----------------|---------1-1-3-1-|
|-----------------|-----------------|-----------------|-----------------|


  E E E E E E E E   E E E E E E E E   E E E E E E E E
|-----------------|-----------------|-----------------|
|-------5-3-3---3-|-----------------|-----------------|
|-----5-------3---|-6-6-------------|-6-6-----------6-|
|-3-3-------------|-----6---------6-|-----6-------6---|
|-----------------|-------4---4-----|-------4---4-----|


  E  E  E  E  E  E  E  E    H.      Q
|------------------------|-------------||
|-0S12-12-12-12-12-12-12-|-12\---------||
|------------------------|-------------||
|------------------------|-------------||
|------------------------|-------------||


RITORNELLO 2

  E E E E E E E E   E E E E E E E E   E E E E E E E E   E E E E E E E E
|-----------------|-----------------|-----------------|-----------------|
|-----------------|-4-4-4-4-4-4-4-4-|-----------------|-----------------|
|-3-3-3-3-3-3-3-3-|-----------------|-7-7-7-7---------|-5-5-5-5-5-5-5-5-|
|-----------------|-----------------|---------5-5-5-5-|-----------------|
|-----------------|-----------------|-----------------|-----------------|


  E E E E E E E E   E E E E E E E E   E E E E E E E E   E E E E E E E E
|-----------------|-----------------|-----------------|-----------------|
|-----------------|-----------------|-----------------|---5-4-2---------|
|-----------------|-2-2-2-2-2-2-2-2-|-3-3-3-3-5-5-5-5-|---------5-3-2---|
|-3-3-3-3-3-3-3-3-|-----------------|-----------------|-3-------------5-|
|-----------------|-----------------|-----------------|-----------------|


  E E E E E E E E   E E E E E E E E   E E E E  E  E  E  E   E E E E E E E E
|-----------------|-----------------|---------------------|-----------------|
|-----------------|-4-4-4-4-4-4-4-4-|---------------------|-----------------|
|-3-3-3-3-3-3-3-3-|-----------------|-7-7-7-7-12-12-12-12-|-5-5-5-5-5-5-5-5-|
|-----------------|-----------------|---------------------|-----------------|
|-----------------|-----------------|---------------------|-----------------|


  E E E E E E E E   E E E E E E E E   E E E E E E E E   E E E E E E E E
|-----------------|-----------------|-----------------|-----------------||
|-----------------|-----------------|-----------------|-5-5-5-5-5-5-5-5-||
|-----------------|-2-2-2-2-2-2-2-2-|-3-3-3-3-5-5-5-5-|-----------------||
|-3-3-3-3-3-3-3-3-|-----------------|-----------------|-----------------||
|-----------------|-----------------|-----------------|-----------------||


BREAK

  Q.  E E  E E E   E  Q  E E E Q   H.  E E   E  Q E E E Q   H. E E
|----------------|---/7--5-4-----|---------|----7-5-4-----|--------|
|-3--------------|-----------7-5-|---------|-7--------7-5-|------5-|
|----------------|---------------|-------7-|--------------|--------|
|-----1-1----1-1-|---------------|-3-------|--------------|-1------|
|----------------|---------------|---------|--------------|--------|


  E Q E E E Q   H.  E E    S  S  S  S  S  S  S  S   E E E E
|---7-5-4-----|-------0S|=19-19-19-19-19-19-19-19\----------|
|-7-------7-5-|---------|-----------------------------------|
|-------------|---------|-----------------------------------|
|-------------|-3-------|---------------------------1-x-1-1-|
|-------------|---------|-----------------------------------|


  E E E E E E E E   E E Q  E E E E   E E E E E E E E   E E Q  E E E E
|-----------------|----------------|-----------------|----------------|
|-3-3-3-3-----3-3-|----------------|-5-5-----5-5-----|----------------|
|-----------------|----------------|-----------------|----------------|
|---------1-1-----|-x-x-3--x-x-3-3-|-----3-3-----3-3-|-x-x-1--x-x-1-1-|
|-----------------|----------------|-----------------|----------------|


  E E E E E E E E   E E Q  E E E E   E E E E E E E E
|-----------------|----------------|-----------------||
|-3-3-----3-3-----|----------------|-----------------||
|-----------------|----------------|-----------------||
|-----1-1-----1-1-|-x-x-3--x-x-3-3-|-3-3-3-3-3-3-3-3-||
|-----------------|----------------|-----------------||


RITORNELLO 3

  E E E E E E E E   E E E E E E E E   E E E E E E E E   E E E E E E E E
|-----------------|-----------------|-----------------|-----------------|
|-----------------|-6-6-6-6-6-6-6-6-|-----------------|-----------------|
|-5-5-5-5-5-5-5-5-|-----------------|-9-9-9-9---------|-7-7-7-7-7-7-7-7-|
|-----------------|-----------------|---------7-7-7-7-|-----------------|
|-----------------|-----------------|-----------------|-----------------|


  E E E E E E E E   E E E E E E E E   E E E E E E E E   E E E E E E E E
|-----------------|-----------------|-----------------|-----------------|
|-----------------|-----------------|-----------------|---7-6-4---------|
|-----------------|-4-4-4-4-4-4-4-4-|-5-5-5-5-7-7-7-7-|---------7-5-4---|
|-5-5-5-5-5-5-5-5-|-----------------|-----------------|-5-------------7-|
|-----------------|-----------------|-----------------|-----------------|


  E E E E E E E E   E E E E E E E E   E E E E E E E E   E E E E E E E E
|-----------------|-----------------|-----------------|-----------------|
|-----------------|-6-6-6-6-6-6-6-6-|-----------------|-----------------|
|-5-5-5-5-5-5-5-5-|-----------------|-9-9-9-9---------|-7-7-7-7-7-7-7-7-|
|-----------------|-----------------|---------7-7-7-7-|-----------------|
|-----------------|-----------------|-----------------|-----------------|


  E E E E E E E E   E E E E E E E E   E E E E E E E E   E E E E E E E E
|-----------------|-----------------|-----------------|-----------------|
|-----------------|-----------------|-----------------|-----------------|
|-----------------|-4-4-4-4-4-4-4-4-|-5-5-5-5-7-7-7-7-|-----------------|
|-5-5-5-5-5-5-5-5-|-----------------|-----------------|-5-5-5-5-5-5-5-5-|
|-----------------|-----------------|-----------------|-----------------|


  E E E E E E E E   E E E E E E E E   E E E E E E E E   E E  E  E  E  E  E  
|-----------------|-----------------|-----------------|-----------------------|
|-----------------|-6-6-6-6-6-6-6-6-|-4-4-4-4---------|-2-2S14-14-14-14-14-14-|
|-5-5-5-5-5-5-5-5-|-----------------|---------2-2-2-2-|-----------------------|
|-----------------|-----------------|-----------------|-----------------------|
|-----------------|-----------------|-----------------|-----------------------|


  E E E E E E E E   E E E E E E E E   E E E E E E E E
|-----------------|-----------------|-----------------||
|-----------------|-----------------|-----------------||
|-----------------|-4-4-4-4-4-4-4-4-|-5-5-5-5-7-7-7-7-||
|-5-5-5-5-5-5-5-5-|-----------------|-----------------||
|-----------------|-----------------|-----------------||

FINALE

  E E E E E E E E   E E E E E E E E   E E E E E E E E   E E E E E E E E
|-----------------|-----------------|-----------------|-----------------|
|-----------------|-6-6-6-6-6-6-6-6-|-----------------|-----------------|
|-5-5-5-5-5-5-5-5-|-----------------|-9-9-9-9---------|-7-7-7-7-7-7-7-7-|
|-----------------|-----------------|---------7-7-7-7-|-----------------|
|-----------------|-----------------|-----------------|-----------------|


  E E E E E E E E   E E E E E E E E
|-----------------|-----------------|
|-----------------|-----------------|
|-----------------|-4-4-4-4-4-4-4-4-|
|-5-5-5-5-5-5-5-5-|-----------------|
|-----------------|-----------------|


  E E E E E E E E   W   E E E E E E E E   W
|-----------------|---|-----------------|---|
|-----4-7-6-6-----|---|-----4-7-6-6-----|---|
|-5-5---------7---|---|-5-5---------7---|---|
|---------------7-|-5-|---------------7-|-5-|
|-----------------|---|-----------------|---|


  E E E E E E E E   E E E E E E E E
|-----------------|-----------------|
|-----4-7-----4-7-|-----4-7-----4-7-|
|-5-5-----5-5-----|-5-5-----5-5-----|
|-----------------|-----------------|
|-----------------|-----------------|


  E E E E E E E E   E E E E E E E E   E E Q
|-----------------|-----------------|---------||
|-6-6-----6-6-----|-6-6-----6-6-----|---------||
|-----7-------7---|-----7-------7---|---------||
|-------7-------7-|-------7-------7-|-5-5-5---||
|-----------------|-----------------|---------||


            
            
Suggest correction
Creating personal tab
Creating personal tab
You can edit any tab online and save it as your Personal.

You can edit, replace or remove any tab part or add personal notes – all changes will be seen only by you.

Personal tabs can be accessed anytime from any device, even offline.
Learn more »
Give kudos to tab author, rate the tab!
1 2 3 4 5
comments
print report bad tab
guest
You may want to rate the tab now too:
select rating
Wanna post a correction for this tab? Suggest correction