Oops, an error
Loading. Please wait.

No Es Amor tab

25 views 1 this week
no commentswrite comment
1 2 3 4 5
3 more votes to show rating
add to favorites
×
Save as Personal and add changes to this tab that will be seen only by you. Learn more ›
×
You can save this tab as Personal to edit and correct it or add notes. All changes will be seen only by you. Learn more »
launch autoscroll
font size
0
reset
how to read this tab
guitar tuner
edit
Autoscroll
slow
fast
+/-
esc
set tempo
stop
Author
Difficulty
VERSION ACUSTICA


Intro:

e|----8-----8-----8----8-----8------|
B|--8---8-----8------8---8-----8----|
G|--------9-----9----------9-----9--|
D|----------------------------------|
A|----------------------------------|
E|----------------------------------|


C Em Am F(x2)

e|------------------------------------------|
B|------------------------------------------|
G|-5-5-5--7-7--9-9---12-12-12--14-14--16-16-|
D|-x-x-x--x-x--x-x---x--x--x---x--x---x--x--|
A|-3-3-3--5-5--7-7---10-10-10--12-12--14-14-|
E|------------------------------------------|

e|------------------------------------------|
B|------------------------------------------|
G|---------------------10-10-10--9-9--12-12-|
D|-7-7-7--9-9--10-10---x--x--x---x-x--x--x--|
A|-x-x-x--x-x--x--x----8--8--8---7-7--10-10-|
E|-5-5-5--7-7--8--8-------------------------|


C      Em
Si veo tu foto todo el día
Am
y pienso en ti
F
no es amor
C      Em
y si te digo que te quiero
Am
y que a veces sin ti no puedo
F
no es amor


C Em Am F(x2)


C           Em
Y si a todos les pregunto por ti
Am
y qué has hecho
F
no es amor
C             Em
Y si te invito una soda
                Am
sólo para estar contigo
F            G            F    G
no es amor,    no es amor


C            Em
No es amor,    no es amor
Am           F                       C
no es amor,    te juro que no es amor
Em           Am
No es amor,    no es amor
F
te juro que no...


    C    Em    Am    F
aah ,  aahh,  aah
    C    Em    Am    F
aah ,  aahh,  aah


C             Em
Y si yo busco un pretexto
            Am
para que mi mano roce
F
no es amor
C                    Em
Y si te escribo estas palabras,
Am
y yo te escribo estas palabras
F
no es amor


C            Em
No es amor,    no es amor
Am           F                       C
no es amor,    te juro que no es amor
Em           Am
No es amor,    no es amor
F
te juro que no es


C Em Am F(x2) - C
Suggest correction
Creating personal tab
Creating personal tab
You can edit any tab online and save it as your Personal.

You can edit, replace or remove any tab part or add personal notes – all changes will be seen only by you.

Personal tabs can be accessed anytime from any device, even offline.
Learn more »
Give kudos to tab author, rate the tab!
1 2 3 4 5
comments
print report bad tab
guest
You may want to rate the tab now too:
select rating
Wanna post a correction for this tab? Suggest correction