Oops, an error
Loading. Please wait.

Shoreline tab

by Elisium
55 views 1 this week
no commentswrite comment
1 2 3 4 5
1 last vote to show rating
add to favorites
×
Save as Personal and add changes to this tab that will be seen only by you. Learn more ›
×
You can save this tab as Personal to edit and correct it or add notes. All changes will be seen only by you. Learn more »
launch autoscroll
font size
0
reset
how to read this tab
guitar tuner
edit
Autoscroll
slow
fast
+/-
esc
set tempo
stop
Title: Shoreline
Artist: Elisium
Album: Shoreline


[Intro]

B |---------------------------------------------------------------------------|
F#|---------------------------------------------------------------------------|
D |---------------------------------------------------------------------------|
A |--7--7--7--7--------7-----10-10-10-10-------10-----------------------------|
E |--7--7--7--7--------7-----10-10-10-10-------10-----------------------------|
B |--5--5--5--5--------5-----8--8--8--8--------8------------------------------|
                                                                                  x1
B |---------------------------------------------------------------------------|
F#|---------------------------------------------------------------------------|
D |---------------------------------------------------------------------------|
A |--------------------------------5---------------------------7----5----4----|
E |--------------------------9------------------------------------------------|
B |--0--0--0--0-----0--0--0------7------0--0--0--0-----0--0--0----------------|

B |---------------------------------------------------------------------------|
F#|---------------------------------------------------------------------------|
D |---------------------------------------------------------------------------|
A |--------------------------------5-----------9-------------12---------------|
E |--------------------------9------------------------------------9-----------|
B |--0--0--0--0-----0--0--0------7----------5-------5---\8--------------------|
                                                                                  x2

[Verse 1]

B |---------------------------------------------------------------------------|
F#|---------------------------------------------------------------------------|
D |---------------------------------------------------------------------------|
A |--------------------------------5---------------------------7----5----4----|
E |--------------------------9------------------------------------------------|
B |--0--0--0--0-----0--0--0------7------0--0--0--0-----0--0--0----------------|

B |---------------------------------------------------------------------------|
F#|---------------------------------------------------------------------------|
D |---------------------------------------------------------------------------|
A |--------------------------------5-----------9-------------12---------------|
E |--------------------------9------------------------------------9-----------|
B |--0--0--0--0-----0--0--0------7----------5-------5---\8--------------------||
                                                                                  x4


[Chorus 1]

B |---------------------------------------------------------------------------|
F#|---------------------------------------------------------------------------|
D |---------------------------------------------------------------------------|
A |--10----10----10--10-----10--------10----10----10--12----12----------------|
E |--10----10----10--10-----10--------10----10----10--10----10------9---------|
B |--8-----8-----8---8------8---------8-----8-----8---8-----8-----------------|
                                                                                  x2
B |---------------------------------------------------------------------------|
F#|---------------------------------------------------------------------------|
D |---------------------------------------------------------------------------|
A |------------------------------------------------------10-----12-----9------|
E |------------------------------------------------------10-----12-----9------|
B |--0--0----0--0-----0--0--0--0--0--0--0--0----0--0-----8------10-----7------|

B |---------------------------------------------------------------------------|
F#|---------------------------------------------------------------------------|
D |---------------------------------------------------------------------------|
A |-------------------------------------------------------5------7-----4------|
E |-------------------------------------------------------5------7-----4------|
B |--0--0----0--0-----0--0--0--0--0--0--0--0----0--0------3------5-----2------|
                                                                                  x2
B |---------------------------------------------------------------------------|
F#|---------------------------------------------------------------------------|
D |---------------------------------------------------------------------------|
A |--------------------------------5---------------------------7----5----4----|
E |--------------------------9------------------------------------------------|
B |--0--0--0--0-----0--0--0------7------0--0--0--0-----0--0--0----------------|

B |---------------------------------------------------------------------------|
F#|---------------------------------------------------------------------------|
D |---------------------------------------------------------------------------|
A |--------------------------------5-----------9-------------12---------------|
E |--------------------------9------------------------------------9-----------|
B |--0--0--0--0-----0--0--0------7----------5-------5---\8--------------------|
                                                                                  x2

[Verse 2]

B |---------------------------------------------------------------------------|
F#|---------------------------------------------------------------------------|
D |---------------------------------------------------------------------------|
A |--------------------------------5---------------------------7----5----4----|
E |--------------------------9------------------------------------------------|
B |--0--0--0--0-----0--0--0------7------0--0--0--0-----0--0--0----------------|

B |---------------------------------------------------------------------------|
F#|---------------------------------------------------------------------------|
D |---------------------------------------------------------------------------|
A |--------------------------------5-----------9-------------12---------------|
E |--------------------------9------------------------------------9-----------|
B |--0--0--0--0-----0--0--0------7----------5-------5---\8--------------------|
                                                                                  x4

[Chorus 2]

B |---------------------------------------------------------------------------|
F#|---------------------------------------------------------------------------|
D |---------------------------------------------------------------------------|
A |--10----10----10--10-----10--------10----10----10--12----12----------------|
E |--10----10----10--10-----10--------10----10----10--10----10------9---------|
B |--8-----8-----8---8------8---------8-----8-----8---8-----8-----------------|
                                                                                  x2
B |---------------------------------------------------------------------------|
F#|---------------------------------------------------------------------------|
D |------------------------------------------------------------------ --------|
A |------------------------------------------------------10-----12-----9------|
E |------------------------------------------------------10-----12-----9------|
B |--0--0----0--0-----0--0--0--0--0--0--0--0----0--0-----8------10-----7------|

B |---------------------------------------------------------------------------|
F#|---------------------------------------------------------------------------|
D |---------------------------------------------------------------------------|
A |-------------------------------------------------------5------7-----4------|
E |-------------------------------------------------------5------7-----4------|
B |--0--0----0--0-----0--0--0--0--0--0--0--0----0--0------3------5-----2------|
                                                                                  x3

 
[Bridge] 

B |---------------------------------------------------------------------------|
F#|---------------------------------------------------------------------------|
D |---------------------------------------------------------------------------|
A |--10-----12-----10--10-------10----10----10--12----12----10----------------|
E |--10-----10-----10--10-------10----10----10--10----10----9-----------------|
B |--8------8------8---8--------8-----8-----8---8-----8-----8-----------------|

B |---------------------------------------------------------------------------|
F#|---------------------------------------------------------------------------|
D |---------------------------------------------------------------------------|
A |--10-----10-----10--12-------10----10----10--12----12----14----------------|
E |--10-----10-----10--10-------10----10----10--10----10----10----------------|
B |--8------8------8---8--------8-----8-----8---8-----8-----8-----------------|

B |---------------------------------------------------------------------------|
F#|---------------------------------------------------------------------------|
D |--------------------(4)-----------------------(4)---(4)---(4)--------------|
A |---2------2------2---2-------------------------2-----2-----2---------------|
E |---2------2------2---2-------------------------2-----2-----2---------------|
B |---0------0------0---0-------------------------0-----0-----0---------------|

B |---------------------------------------------------------------------------|
F#|---------------------------------------------------------------------------|
D |--------------------(4)----------------------------------------------------|
A |---2------2------2---2-----------------------------------------------------|
E |---2------2------2---2-----------------------------------------------------|
B |---0------0------0---0-----------------------------------------------------|

B |---------------------------------------------------------------------------|
F#|---------------------------------------------------------------------------|
D |---------------------------------------------------------------------------|
A |--10-----10-----10--10-----------------------------------------------------|
E |--10-----10-----10--10-----------------------------------------------------|
B |--8------8------8---8------------------------------------------------------|

B |---------------------------------------------------------------------------|
F#|---------------------------------------------------------------------------|
D |---------------------------------------------------------------------------|
A |--12-----12-----12--12-----------------------------------------------------|
E |--12-----12-----12--12-----------------------------------------------------|
B |--10-----10-----10--10-----------------------------------------------------|
                                                                                  x1

[Outro]

B |---------------------------------------------------------------------------|
F#|---------------------------------------------------------------------------|
D |---------------------------------------------------------------------------|
A |------------------------------------------------------10-----12-----9------|
E |------------------------------------------------------10-----12-----9------|
B |--0--0----0--0-----0--0--0--0--0--0--0--0----0--0-----8------10-----7------|

B |---------------------------------------------------------------------------|
F#|---------------------------------------------------------------------------|
D |---------------------------------------------------------------------------|
A |---------------------------------------------------------------------------|
E |---------------------------------------------------------------------------|
B |--0--0----0--0-----0--0--0--0--0--0--0--0----0--0--------------------------|
                                                                                  x4


************************************

| (n) Ghost note
| \   Slide down

************************************

            
            
Suggest correction
Creating personal tab
Creating personal tab
You can edit any tab online and save it as your Personal.

You can edit, replace or remove any tab part or add personal notes – all changes will be seen only by you.

Personal tabs can be accessed anytime from any device, even offline.
Learn more »
Give kudos to tab author, rate the tab!
1 2 3 4 5
comments
print report bad tab
guest
You may want to rate the tab now too:
select rating
Wanna post a correction for this tab? Suggest correction